  0
SECTION
  2
HEADER
  9
$ACADVER
  1
AC1009
  9
$INSBASE
 10
0
 20
0
 30
0
  9
$EXTMIN
 10
0
 20
0
  9
$EXTMAX
 10
420
 20
297
  9
$LIMMIN
 10
0
 20
0
  9
$LIMMAX
 10
420
 20
297
  9
$LTSCALE
 40
1
  0
ENDSEC
  0
SECTION
  2
TABLES
  0
TABLE
  2
LTYPE
 70
     9
  0
LTYPE
  2
CONTINUOUS
 70
    64
  3
実線
 72
    65
 73
     0
 40
0.0
  0
LTYPE
  2
DASHED1
 70
    64
  3
--  --  --  --  --  --  --  --  
 72
    65
 73
     2
 40
2.5
 49
1.25
 49
-1.25
  0
LTYPE
  2
DASHED2
 70
    64
  3
----    ----    ----    ----    
 72
    65
 73
     2
 40
5.0
 49
2.5
 49
-2.5
  0
LTYPE
  2
DASHED3
 70
    64
  3
------  ------  ------  ------  
 72
    65
 73
     2
 40
5.0
 49
3.75
 49
-1.25
  0
LTYPE
  2
CENTER1
 70
    64
  3
----- - ----- - ----- - ----- - 
 72
    65
 73
     4
 40
10.0
 49
6.25
 49
-1.25
 49
1.25
 49
-1.25
  0
LTYPE
  2
CENTER2
 70
    64
  3
----------  --  ----------  --  
 72
    65
 73
     4
 40
20.0
 49
12.5
 49
-2.5
 49
2.5
 49
-2.5
  0
LTYPE
  2
PHANTOM1
 70
    64
  3
--- - - --- - - --- - - --- - - 
 72
    65
 73
     6
 40
10.0
 49
3.25
 49
-1.25
 49
1.25
 49
-1.25
 49
1.25
 49
-1.25
  0
LTYPE
  2
PHANTOM2
 70
    64
  3
--------  -  -  --------  -  -  
 72
    65
 73
     6
 40
20.0
 49
10.0
 49
-2.5
 49
1.25
 49
-2.5
 49
1.25
 49
-2.5
  0
LTYPE
  2
DOT
 70
    64
  3
-   -   -   -   -   -   -   -   
 72
    65
 73
     2
 40
2.5
 49
0.625
 49
-1.875
  0
LTYPE
  2
DUMMY
 70
    64
  3
ダミー
 72
    65
 73
     0
 40
0.0
  0
LTYPE
  2
RAND1
 70
    64
  3
ランダム線1
 72
    65
 73
     4
 40
10.0
 49
1.0
 49
-2.0
 49
3.0
 49
-4.0
  0
LTYPE
  2
RAND2
 70
    64
  3
ランダム線2
 72
    65
 73
     4
 40
14.0
 49
2.0
 49
-3.0
 49
4.0
 49
-5.0
  0
LTYPE
  2
RAND3
 70
    64
  3
ランダム線3
 72
    65
 73
     4
 40
18.0
 49
3.0
 49
-4.0
 49
5.0
 49
-6.0
  0
LTYPE
  2
RAND4
 70
    64
  3
ランダム線4
 72
    65
 73
     4
 40
22.0
 49
4.0
 49
-5.0
 49
6.0
 49
-7.0
  0
LTYPE
  2
RAND5
 70
    64
  3
ランダム線5
 72
    65
 73
     4
 40
26.0
 49
5.0
 49
-6.0
 49
7.0
 49
-8.0
  0
LTYPE
  2
LONG1
 70
    64
  3
----------  --  ----------  --  
 72
    65
 73
     4
 40
40.0
 49
32.5
 49
-2.5
 49
2.5
 49
-2.5
  0
LTYPE
  2
LONG2
 70
    64
  3
--------  -  -  --------  -  -  
 72
    65
 73
     6
 40
40.0
 49
30.0
 49
-2.5
 49
1.25
 49
-2.5
 49
1.25
 49
-2.5
  0
LTYPE
  2
LONG3
 70
    64
  3
+++++++++++++++..+++++++++++++++
 72
    65
 73
     2
 40
40.0
 49
37.5
 49
-2.5
  0
LTYPE
  2
LONG4
 70
    64
  3
+++++++++++++++..+++++++++++++++
 72
    65
 73
     2
 40
80.0
 49
75.0
 49
-5.0
  0
LTYPE
  2
LONG5
 70
    64
  3
----------  --  ----------  --  
 72
    65
 73
     4
 40
60.0
 49
37.5
 49
-7.5
 49
7.5
 49
-7.5
  0
LTYPE
  2
dashed
 70
   64
  3
-------   -------------   ------
 72
   65
 73
    2
 40
7.5
 49
6
 49
-1.5
  0
LTYPE
  2
dashed_spaced
 70
   64
  3
----        --------        ----
 72
   65
 73
    2
 40
12
 49
6
 49
-6
  0
LTYPE
  2
long_dashed_dotted
 70
   64
  3
------------- --- --------------
 72
   65
 73
    4
 40
15.25
 49
12
 49
-1.5
 49
0.25
 49
-1.5
  0
LTYPE
  2
long_dashed_double-dotted
 70
   64
  3
----------- --- --- ------------
 72
   65
 73
    6
 40
17
 49
12
 49
-1.5
 49
0.25
 49
-1.5
 49
0.25
 49
-1.5
  0
LTYPE
  2
long_dashed_triplicate-dotted
 70
   64
  3
--------- --- --- --- ----------
 72
   65
 73
    8
 40
18.75
 49
12
 49
-1.5
 49
0.25
 49
-1.5
 49
0.25
 49
-1.5
 49
0.25
 49
-1.5
  0
LTYPE
  2
dotted
 70
   64
  3
   -       -       -       -    
 72
   65
 73
    2
 40
1.75
 49
0.25
 49
-1.5
  0
LTYPE
  2
chain
 70
   64
  3
-------------- -- --------------
 72
   65
 73
    4
 40
18.5
 49
12
 49
-1.5
 49
3.5
 49
-1.5
  0
LTYPE
  2
chain_double_dash
 70
   64
  3
------------ -- -- -------------
 72
   65
 73
    6
 40
23.5
 49
12
 49
-1.5
 49
3.5
 49
-1.5
 49
3.5
 49
-1.5
  0
LTYPE
  2
dashed_dotted
 70
   64
  3
-----------     -     ----------
 72
   65
 73
    4
 40
9.25
 49
6
 49
-1.5
 49
0.25
 49
-1.5
  0
LTYPE
  2
double-dashed_dotted
 70
   64
  3
------   -----------   -   -----
 72
   65
 73
    6
 40
16.75
 49
6
 49
-1.5
 49
6
 49
-1.5
 49
0.25
 49
-1.5
  0
LTYPE
  2
dashed_double-dotted
 70
   64
  3
---------    -    -    ---------
 72
   65
 73
    6
 40
11
 49
6
 49
-1.5
 49
0.25
 49
-1.5
 49
0.25
 49
-1.5
  0
LTYPE
  2
double-dashed_double-dotted
 70
   64
  3
-----   ---------   -   -   ----
 72
   65
 73
    8
 40
18.5
 49
6
 49
-1.5
 49
6
 49
-1.5
 49
0.25
 49
-1.5
 49
0.25
 49
-1.5
  0
LTYPE
  2
dashed_triplicate-dotted
 70
   64
  3
-------    -    -    -    ------
 72
   65
 73
    8
 40
12.75
 49
6
 49
-1.5
 49
0.25
 49
-1.5
 49
0.25
 49
-1.5
 49
0.25
 49
-1.5
  0
LTYPE
  2
double-dashed_triplicate-dotted
 70
   64
  3
-----  ---------  -  -  -  -----
 72
   65
 73
   10
 40
20.25
 49
6
 49
-1.5
 49
6
 49
-1.5
 49
0.25
 49
-1.5
 49
0.25
 49
-1.5
 49
0.25
 49
-1.5
  0
LTYPE
  2
undefined
 70
   64
  3
--------------------------------
 72
   65
 73
    0
 40
0
  0
LTYPE
  2
HIDDEN
 70
   64
  3
------     -----------     -----
 72
   65
 73
    2
 40
1.905
 49
1.27
 49
-0.635
  0
LTYPE
  2
PHANTOM
 70
   64
  3
---------   ---   ---   --------
 72
   65
 73
    6
 40
12.699999999999998
 49
6.3499999999999996
 49
-1.27
 49
1.27
 49
-1.27
 49
1.27
 49
-1.27
  0
LTYPE
  2
DOT2
 70
   64
  3
-               -               
 72
   65
 73
    2
 40
0.645
 49
0.01
 49
-0.635
  0
LTYPE
  2
_
 70
   64
  3
                                
 72
   65
 73
    0
 40
0
  0
LTYPE
  2
__21
 70
   64
  3
                                
 72
   65
 73
    0
 40
0
  0
LTYPE
  2
__22
 70
   64
  3
                                
 72
   65
 73
    0
 40
0
  0
LTYPE
  2
__23
 70
   64
  3
                                
 72
   65
 73
    0
 40
0
  0
LTYPE
  2
__24
 70
   64
  3
                                
 72
   65
 73
    0
 40
0
  0
LTYPE
  2
__25
 70
   64
  3
                                
 72
   65
 73
    0
 40
0
  0
LTYPE
  2
__26
 70
   64
  3
                                
 72
   65
 73
    0
 40
0
  0
LTYPE
  2
__27
 70
   64
  3
                                
 72
   65
 73
    0
 40
0
  0
LTYPE
  2
__28
 70
   64
  3
                                
 72
   65
 73
    0
 40
0
  0
LTYPE
  2
__29
 70
   64
  3
                                
 72
   65
 73
    0
 40
0
  0
LTYPE
  2
__30
 70
   64
  3
                                
 72
   65
 73
    0
 40
0
  0
LTYPE
  2
__31
 70
   64
  3
                                
 72
   65
 73
    0
 40
0
  0
LTYPE
  2
__32
 70
   64
  3
                                
 72
   65
 73
    0
 40
0
  0
ENDTAB
  0
TABLE
  2
STYLE
  5
3
100
AcDbSymbolTable
 70
     1
  0
STYLE
  5
10
100
AcDbSymbolTableRecord
100
AcDbTextStyleTableRecord
  2
STANDARD
 70
     0
 40
0.0
 41
1.0
 50
0.0
 71
     0
 42
0.2
  3
txt
  4
bigfont.shx
  0
STYLE
  5
26
100
AcDbSymbolTableRecord
100
AcDbTextStyleTableRecord
  2
TATEGAKI
 70
    68
 40
0.0
 41
1.0
 50
0.0
 71
     0
 42
1.0
  3
txt
  4
bigfont.shx
  0
ENDTAB
  0
TABLE
  2
LAYER
 70
    2
  0
LAYER
  2
_0-0_0
 70
   64
 62
    7
  6
CONTINUOUS
  0
LAYER
  2
ADD_LINE
 70
   64
 62
    7
  6
CONTINUOUS
  0
ENDTAB
  0
ENDSEC
  0
SECTION
  2
BLOCKS
  0
BLOCK
  2
-000-_DOT
 70
   64
 10
0
 20
0
 30
0
  0
CIRCLE
  8
_0-0_0
  6
CONTINUOUS
 62
    7
 10
0
 20
0
 40
0.25
  0
CIRCLE
  8
_0-0_0
  6
CONTINUOUS
 62
    7
 10
0
 20
-0
 40
0.25
  0
LINE
  8
_0-0_0
  6
CONTINUOUS
 62
    7
 10
-0.5
 20
0
 11
-1
 21
0
  0
ENDBLK
  0
BLOCK
  2
-001-_D
 70
   64
 10
0
 20
0
 30
0
  0
INSERT
  2
-000-_DOT
  8
_0-0_0
 10
66.853329005399999
 20
244.10336038560001
 41
1
 42
1
 50
90
  0
INSERT
  2
-000-_DOT
  8
_0-0_0
 10
66.853329005399999
 20
231.6386120416
 41
1
 42
1
 50
270
  0
LINE
  8
_0-0_0
  6
CONTINUOUS
 62
    7
 10
56.819518365
 20
244.10336038560001
 11
67.853329005399999
 21
244.10336038560001
  0
LINE
  8
_0-0_0
  6
CONTINUOUS
 62
    7
 10
57.428705514199997
 20
231.6386120416
 11
67.853329005399999
 21
231.6386120416
  0
LINE
  8
_0-0_0
  6
CONTINUOUS
 62
    7
 10
66.853329005399999
 20
244.10336038560001
 11
66.853329005399999
 21
231.6386120416
  0
TEXT
  8
_0-0_0
 62
    7
 10
65.042891901199994
 20
233.9918195397
 40
3.5
 41
0.6999999999999999
 50
90
  1
620
  0
ENDBLK
  0
BLOCK
  2
-002-_D_1
 70
   64
 10
0
 20
0
 30
0
  0
INSERT
  2
-000-_DOT
  8
_0-0_0
 10
45.612095169100002
 20
190.6151794269
 41
1
 42
1
 50
180
  0
INSERT
  2
-000-_DOT
  8
_0-0_0
 10
56.830041580699998
 20
190.6151794269
 41
1
 42
1
 50
0
  0
LINE
  8
_0-0_0
  6
CONTINUOUS
 62
    7
 10
45.612095169100002
 20
204.9910558309
 11
45.612095169100002
 21
189.6151794269
  0
LINE
  8
_0-0_0
  6
CONTINUOUS
 62
    7
 10
56.830041580699998
 20
204.9910558309
 11
56.830041580699998
 21
189.6151794269
  0
LINE
  8
_0-0_0
  6
CONTINUOUS
 62
    7
 10
45.612095169100002
 20
190.6151794269
 11
56.830041580699998
 21
190.6151794269
  0
TEXT
  8
_0-0_0
 62
    7
 10
47.341901700999998
 20
192.42561653109999
 40
3.5
 41
0.6999999999999999
 50
0
  1
560
  0
ENDBLK
  0
BLOCK
  2
-003-_D_2
 70
   64
 10
0
 20
0
 30
0
  0
INSERT
  2
-000-_DOT
  8
_0-0_0
 10
110.8201045413
 20
214.3032296152
 41
1
 42
1
 50
90
  0
INSERT
  2
-000-_DOT
  8
_0-0_0
 10
110.8201045413
 20
197.49468857330001
 41
1
 42
1
 50
270
  0
LINE
  8
_0-0_0
  6
CONTINUOUS
 62
    7
 10
100.495436738
 20
214.3032296152
 11
111.8201045413
 21
214.3032296152
  0
LINE
  8
_0-0_0
  6
CONTINUOUS
 62
    7
 10
101.7672560341
 20
197.49468857330001
 11
111.8201045413
 21
197.49468857330001
  0
LINE
  8
_0-0_0
  6
CONTINUOUS
 62
    7
 10
110.8201045413
 20
214.3032296152
 11
110.8201045413
 21
197.49468857330001
  0
TEXT
  8
_0-0_0
 62
    7
 10
109.00966743710001
 20
202.01979242030001
 40
3.5
 41
0.6999999999999999
 50
90
  1
840
  0
ENDBLK
  0
ENDSEC
  0
SECTION
  2
ENTITIES
  0
ARC
  8
_0-0_0
  6
CONTINUOUS
 62
    7
 10
80.666924093299997
 20
167.8716557708
 40
46.983928528265331
 50
86.493016319999995
 51
87.517320072299995
  0
LINE
  8
_0-0_0
  6
CONTINUOUS
 62
    7
 10
4.0999999999999943
 20
191.73333333330001
 11
415.89999999999998
 21
191.73333333330001
  0
LINE
  8
_0-0_0
  6
CONTINUOUS
 62
    7
 10
415.89999999999998
 20
105.2666666667
 11
4.0999999999999943
 21
105.2666666667
  0
LINE
  8
_0-0_0
  6
CONTINUOUS
 62
    7
 10
141.36666666669998
 20
278.19999999999999
 11
141.36666666669998
 21
13.981454266900016
  0
LINE
  8
_0-0_0
  6
CONTINUOUS
 62
    7
 10
278.63333333330002
 20
18.800000000000011
 11
278.63333333330002
 21
278.19999999999999
  0
LINE
  8
_0-0_0
  6
CONTINUOUS
 62
    7
 10
4.0999999999999943
 20
268.19999999999999
 11
415.89999999999998
 21
268.19999999999999
  0
LINE
  8
_0-0_0
  6
CONTINUOUS
 62
    7
 10
4.0999999999999943
 20
181.73333333330001
 11
415.89999999999998
 21
181.73333333330001
  0
LINE
  8
_0-0_0
  6
CONTINUOUS
 62
    7
 10
4.0999999999999943
 20
95.266666666700004
 11
415.89999999999998
 21
95.266666666700004
  0
LINE
  8
_0-0_0
  6
CONTINUOUS
 62
    7
 10
4.0999999999999943
 20
18.800000000000011
 11
4.0999999999999943
 21
278.19999999999999
  0
LINE
  8
_0-0_0
  6
CONTINUOUS
 62
    7
 10
4.0999999999999943
 20
278.19999999999999
 11
415.89999999999998
 21
278.19999999999999
  0
LINE
  8
_0-0_0
  6
CONTINUOUS
 62
    7
 10
415.89999999999998
 20
278.19999999999999
 11
415.89999999999998
 21
18.800000000000011
  0
LINE
  8
_0-0_0
  6
CONTINUOUS
 62
    7
 10
415.89999999999998
 20
18.800000000000011
 11
4.0999999999999943
 21
18.800000000000011
  0
LINE
  8
_0-0_0
  6
CONTINUOUS
 62
    7
 10
-0.9010000000000104
 20
148.5
 11
4.1009999999999991
 21
148.5
  0
LINE
  8
_0-0_0
  6
CONTINUOUS
 62
    7
 10
210
 20
283.20100000000002
 11
210
 21
278.19900000000001
  0
LINE
  8
_0-0_0
  6
CONTINUOUS
 62
    7
 10
420.90099999999995
 20
148.5
 11
415.899
 21
148.5
  0
LINE
  8
_0-0_0
  6
CONTINUOUS
 62
    7
 10
210
 20
13.799000000000007
 11
210
 21
18.801000000000016
  0
LINE
  8
_0-0_0
  6
CONTINUOUS
 62
    7
 10
4.0999999999999943
 20
105.2666666667
 11
-0.9000000000000056
 21
105.2666666667
  0
LINE
  8
_0-0_0
  6
CONTINUOUS
 62
    7
 10
415.89999999999998
 20
105.2666666667
 11
420.89999999999998
 21
105.2666666667
  0
LINE
  8
_0-0_0
  6
CONTINUOUS
 62
    7
 10
4.0999999999999943
 20
191.73333333330001
 11
-0.9000000000000056
 21
191.73333333330001
  0
LINE
  8
_0-0_0
  6
CONTINUOUS
 62
    7
 10
415.89999999999998
 20
191.73333333330001
 11
420.89999999999998
 21
191.73333333330001
  0
LINE
  8
_0-0_0
  6
CONTINUOUS
 62
    7
 10
141.36666666669998
 20
278.19999999999999
 11
141.36666666669998
 21
283.19999999999999
  0
LINE
  8
_0-0_0
  6
CONTINUOUS
 62
    7
 10
141.36666666669998
 20
18.800000000000011
 11
141.36666666669998
 21
13.800000000000011
  0
LINE
  8
_0-0_0
  6
CONTINUOUS
 62
    7
 10
278.63333333330002
 20
278.19999999999999
 11
278.63333333330002
 21
283.19999999999999
  0
LINE
  8
_0-0_0
  6
CONTINUOUS
 62
    7
 10
278.63333333330002
 20
18.800000000000011
 11
278.63333333330002
 21
13.800000000000011
  0
TEXT
  8
_0-0_0
 62
    7
 10
14.971612628599985
 20
272.04719648849999
 40
4.2333333333000001
 41
0.6999999999999999
 50
0
  1
CONSTANTINO Armchair
  0
ARC
  8
_0-0_0
  6
CONTINUOUS
 62
    7
 10
62.580218082399995
 20
245.89246941200003
 40
12.04173846424673
 50
184.49234372729998
 51
186.80961985779996
  0
ARC
  8
_0-0_0
  6
CONTINUOUS
 62
    7
 10
37.247546872300006
 20
244.60341820890002
 40
12.7995876590974
 50
359.234852692
 51
1.4252882329000076
  0
LINE
  8
_0-0_0
  6
CONTINUOUS
 62
    7
 10
50.90089000399999
 20
241.67911482390002
 11
50.877900035499977
 21
241.94137416840002
  0
LINE
  8
_0-0_0
  6
CONTINUOUS
 62
    7
 10
50.877900035499977
 20
241.94137416840002
 11
50.855089679900004
 21
242.19999230850001
  0
LINE
  8
_0-0_0
  6
CONTINUOUS
 62
    7
 10
50.855089679900004
 20
242.19999230850001
 11
50.832651434799999
 21
242.4511944134
  0
LINE
  8
_0-0_0
  6
CONTINUOUS
 62
    7
 10
50.832651434799999
 20
242.4511944134
 11
50.810730188799994
 21
242.69209865530001
  0
LINE
  8
_0-0_0
  6
CONTINUOUS
 62
    7
 10
50.810730188799994
 20
242.69209865530001
 11
50.789277594299989
 21
242.92350431260002
  0
LINE
  8
_0-0_0
  6
CONTINUOUS
 62
    7
 10
50.789277594299989
 20
242.92350431260002
 11
50.768326839999986
 21
243.1448544438
  0
LINE
  8
_0-0_0
  6
CONTINUOUS
 62
    7
 10
50.768326839999986
 20
243.1448544438
 11
50.747938642299999
 21
243.35508623700002
  0
LINE
  8
_0-0_0
  6
CONTINUOUS
 62
    7
 10
50.747938642299999
 20
243.35508623700002
 11
50.72815068540001
 21
243.55341727930002
  0
LINE
  8
_0-0_0
  6
CONTINUOUS
 62
    7
 10
50.72815068540001
 20
243.55341727930002
 11
50.708988857599991
 21
243.73929765940002
  0
LINE
  8
_0-0_0
  6
CONTINUOUS
 62
    7
 10
50.708988857599991
 20
243.73929765940002
 11
50.690472459099993
 21
243.91248072190001
  0
LINE
  8
_0-0_0
  6
CONTINUOUS
 62
    7
 10
50.690472459099993
 20
243.91248072190001
 11
50.672672287099999
 21
244.07166799790002
  0
LINE
  8
_0-0_0
  6
CONTINUOUS
 62
    7
 10
50.672672287099999
 20
244.07166799790002
 11
50.655769756599994
 21
244.21312983270002
  0
LINE
  8
_0-0_0
  6
CONTINUOUS
 62
    7
 10
50.655769756599994
 20
244.21312983270002
 11
50.639531649600002
 21
244.34143652380001
  0
LINE
  8
_0-0_0
  6
CONTINUOUS
 62
    7
 10
50.639531649600002
 20
244.34143652380001
 11
50.623625680399982
 21
244.4631562063
  0
LINE
  8
_0-0_0
  6
CONTINUOUS
 62
    7
 10
50.045980326399985
 20
244.43219027810002
 11
50.043183670299982
 21
244.3097084467
  0
LINE
  8
_0-0_0
  6
CONTINUOUS
 62
    7
 10
50.043183670299982
 20
244.3097084467
 11
50.040725819300008
 21
244.1806210016
  0
LINE
  8
_0-0_0
  6
CONTINUOUS
 62
    7
 10
50.040725819300008
 20
244.1806210016
 11
50.038947213799986
 21
244.03834916320002
  0
LINE
  8
_0-0_0
  6
CONTINUOUS
 62
    7
 10
50.038947213799986
 20
244.03834916320002
 11
50.038082274999994
 21
243.87831779850001
  0
LINE
  8
_0-0_0
  6
CONTINUOUS
 62
    7
 10
50.038082274999994
 20
243.87831779850001
 11
50.037928616800002
 21
243.70426193440002
  0
LINE
  8
_0-0_0
  6
CONTINUOUS
 62
    7
 10
50.037928616800002
 20
243.70426193440002
 11
50.038422067799985
 21
243.51748298460001
  0
LINE
  8
_0-0_0
  6
CONTINUOUS
 62
    7
 10
50.038422067799985
 20
243.51748298460001
 11
50.039554751400004
 21
243.31823007150001
  0
LINE
  8
_0-0_0
  6
CONTINUOUS
 62
    7
 10
50.039554751400004
 20
243.31823007150001
 11
50.041294587799996
 21
243.1070554353
  0
LINE
  8
_0-0_0
  6
CONTINUOUS
 62
    7
 10
50.041294587799996
 20
243.1070554353
 11
50.043597649399999
 21
242.88474463970002
  0
LINE
  8
_0-0_0
  6
CONTINUOUS
 62
    7
 10
50.043597649399999
 20
242.88474463970002
 11
50.046414452499988
 21
242.65236647880002
  0
LINE
  8
_0-0_0
  6
CONTINUOUS
 62
    7
 10
50.046414452499988
 20
242.65236647880002
 11
50.049718568799989
 21
242.41048001530001
  0
LINE
  8
_0-0_0
  6
CONTINUOUS
 62
    7
 10
50.049718568799989
 20
242.41048001530001
 11
50.053538309499999
 21
242.15827849530001
  0
LINE
  8
_0-0_0
  6
CONTINUOUS
 62
    7
 10
50.053538309499999
 20
242.15827849530001
 11
50.057728271599984
 21
241.89866609680001
  0
LINE
  8
_0-0_0
  6
CONTINUOUS
 62
    7
 10
50.057728271599984
 20
241.89866609680001
 11
50.062101785199985
 21
241.63544353750001
  0
ARC
  8
_0-0_0
  6
CONTINUOUS
 62
    7
 10
205.2250546855
 20
249.61828396830001
 40
154.5282762507008
 50
182.94612135850002
 51
183.08660372050002
  0
LINE
  8
_0-0_0
  6
CONTINUOUS
 62
    7
 10
50.062299980599988
 20
241.63237366700002
 11
50.066297884600004
 21
241.5632658264
  0
LINE
  8
_0-0_0
  6
CONTINUOUS
 62
    7
 10
50.066297884600004
 20
241.5632658264
 11
50.069032148499986
 21
241.50572880640001
  0
LINE
  8
_0-0_0
  6
CONTINUOUS
 62
    7
 10
50.069032148499986
 20
241.50572880640001
 11
50.07117100939999
 21
241.46208161250001
  0
LINE
  8
_0-0_0
  6
CONTINUOUS
 62
    7
 10
50.07117100939999
 20
241.46208161250001
 11
50.072804008999981
 21
241.43095863330001
  0
LINE
  8
_0-0_0
  6
CONTINUOUS
 62
    7
 10
50.072804008999981
 20
241.43095863330001
 11
50.073892242200003
 21
241.41015528710003
  0
LINE
  8
_0-0_0
  6
CONTINUOUS
 62
    7
 10
50.073892242200003
 20
241.41015528710003
 11
50.074650685800009
 21
241.39556254040002
  0
LINE
  8
_0-0_0
  6
CONTINUOUS
 62
    7
 10
50.074650685800009
 20
241.39556254040002
 11
50.075425332999998
 21
241.38058793160002
  0
LINE
  8
_0-0_0
  6
CONTINUOUS
 62
    7
 10
50.075425332999998
 20
241.38058793160002
 11
50.076221517199997
 21
241.36514025600002
  0
LINE
  8
_0-0_0
  6
CONTINUOUS
 62
    7
 10
50.076221517199997
 20
241.36514025600002
 11
50.077311587200001
 21
241.34397176320002
  0
LINE
  8
_0-0_0
  6
CONTINUOUS
 62
    7
 10
50.077311587200001
 20
241.34397176320002
 11
50.078613415700005
 21
241.3188181161
  0
LINE
  8
_0-0_0
  6
CONTINUOUS
 62
    7
 10
50.078613415700005
 20
241.3188181161
 11
50.080359366099998
 21
241.28531093980001
  0
LINE
  8
_0-0_0
  6
CONTINUOUS
 62
    7
 10
50.080359366099998
 20
241.28531093980001
 11
50.081812295299983
 21
241.2575041952
  0
ARC
  8
_0-0_0
  6
CONTINUOUS
 62
    7
 10
49.961617370999988
 20
251.59173044650001
 40
0.1550781250000311
 50
354.42033938819998
 51
191.979479887
  0
LINE
  8
_0-0_0
  6
CONTINUOUS
 62
    7
 10
50.306399282900003
 20
250.99647683570001
 11
50.113069371999984
 21
251.62506985650001
  0
LINE
  8
_0-0_0
  6
CONTINUOUS
 62
    7
 10
49.807392973999981
 20
251.6079803762
 11
49.80632515100001
 21
251.60232690390001
  0
LINE
  8
_0-0_0
  6
CONTINUOUS
 62
    7
 10
50.349815418499986
 20
250.76784188320002
 11
50.349924227200006
 21
250.83049807720002
  0
LINE
  8
_0-0_0
  6
CONTINUOUS
 62
    7
 10
50.349924227200006
 20
250.83049807720002
 11
50.334566127199992
 21
250.90507946220001
  0
ARC
  8
_0-0_0
  6
CONTINUOUS
 62
    7
 10
28.011464639299987
 20
248.64040170690001
 40
21.753115845621419
 50
3.4082302865999998
 51
4.8884229471999996
  0
ARC
  8
_0-0_0
  6
CONTINUOUS
 62
    7
 10
115.42626661599999
 20
252.29997618530001
 40
65.093884207189575
 50
181.38227799660001
 51
182.05514259980001
  0
ARC
  8
_0-0_0
  6
CONTINUOUS
 62
    7
 10
52.356027437100011
 20
251.805633199
 40
2.8132277553327092
 50
160.3620281561
 51
177.28700429969999
  0
ARC
  8
_0-0_0
  6
CONTINUOUS
 62
    7
 10
47.405321608500003
 20
251.5329324274
 40
2.9899827618584909
 50
348.15161900779998
 51
24.45354004029997
  0
LINE
  8
_0-0_0
  6
CONTINUOUS
 62
    7
 10
50.928372709900003
 20
241.15641230280002
 11
50.928384438999984
 21
241.1562580504
  0
LINE
  8
_0-0_0
  6
CONTINUOUS
 62
    7
 10
50.928384438999984
 20
241.1562580504
 11
50.928208998400009
 21
241.1603419832
  0
LINE
  8
_0-0_0
  6
CONTINUOUS
 62
    7
 10
50.928208998400009
 20
241.1603419832
 11
50.927876217900007
 21
241.16711771220002
  0
LINE
  8
_0-0_0
  6
CONTINUOUS
 62
    7
 10
50.927876217900007
 20
241.16711771220002
 11
50.927029946999994
 21
241.18299402860001
  0
LINE
  8
_0-0_0
  6
CONTINUOUS
 62
    7
 10
50.927029946999994
 20
241.18299402860001
 11
50.92587701719998
 21
241.2049224573
  0
LINE
  8
_0-0_0
  6
CONTINUOUS
 62
    7
 10
50.92587701719998
 20
241.2049224573
 11
50.924542070299992
 21
241.23053850670001
  0
LINE
  8
_0-0_0
  6
CONTINUOUS
 62
    7
 10
50.924542070299992
 20
241.23053850670001
 11
50.923588269499987
 21
241.2485873846
  0
LINE
  8
_0-0_0
  6
CONTINUOUS
 62
    7
 10
50.923588269499987
 20
241.2485873846
 11
50.9227221939
 21
241.26480506920001
  0
LINE
  8
_0-0_0
  6
CONTINUOUS
 62
    7
 10
50.9227221939
 20
241.26480506920001
 11
50.921922398499987
 21
241.27970098500001
  0
LINE
  8
_0-0_0
  6
CONTINUOUS
 62
    7
 10
50.921922398499987
 20
241.27970098500001
 11
50.921001648399994
 21
241.29686669470001
  0
LINE
  8
_0-0_0
  6
CONTINUOUS
 62
    7
 10
50.921001648399994
 20
241.29686669470001
 11
50.92092373669999
 21
241.29832508600001
  0
ARC
  8
_0-0_0
  6
CONTINUOUS
 62
    7
 10
50.79224300109999
 20
241.2567467554
 40
0.7104791201723526
 50
179.84237800899999
 51
188.6952333998
  0
LINE
  8
_0-0_0
  6
CONTINUOUS
 62
    7
 10
50.687306957599986
 20
240.48969258560001
 11
50.694024236899992
 21
240.49462612900001
  0
LINE
  8
_0-0_0
  6
CONTINUOUS
 62
    7
 10
50.694024236899992
 20
240.49462612900001
 11
50.729632989700008
 21
240.52733668620002
  0
LINE
  8
_0-0_0
  6
CONTINUOUS
 62
    7
 10
50.729632989700008
 20
240.52733668620002
 11
50.76452745040001
 21
240.56648806230001
  0
LINE
  8
_0-0_0
  6
CONTINUOUS
 62
    7
 10
50.76452745040001
 20
240.56648806230001
 11
50.797919218400011
 21
240.61184440650001
  0
LINE
  8
_0-0_0
  6
CONTINUOUS
 62
    7
 10
50.797919218400011
 20
240.61184440650001
 11
50.83226351510001
 21
240.66900477920001
  0
LINE
  8
_0-0_0
  6
CONTINUOUS
 62
    7
 10
50.83226351510001
 20
240.66900477920001
 11
50.86245864579999
 21
240.73196759870001
  0
LINE
  8
_0-0_0
  6
CONTINUOUS
 62
    7
 10
50.86245864579999
 20
240.73196759870001
 11
50.887777873400012
 21
240.79980567230001
  0
LINE
  8
_0-0_0
  6
CONTINUOUS
 62
    7
 10
50.887777873400012
 20
240.79980567230001
 11
50.907672693299986
 21
240.8716392897
  0
LINE
  8
_0-0_0
  6
CONTINUOUS
 62
    7
 10
50.907672693299986
 20
240.8716392897
 11
50.921705268199986
 21
240.94650642240001
  0
LINE
  8
_0-0_0
  6
CONTINUOUS
 62
    7
 10
50.921705268199986
 20
240.94650642240001
 11
50.929568752699993
 21
241.0233877464
  0
LINE
  8
_0-0_0
  6
CONTINUOUS
 62
    7
 10
50.929568752699993
 20
241.0233877464
 11
50.931098248799998
 21
241.10123096160001
  0
LINE
  8
_0-0_0
  6
CONTINUOUS
 62
    7
 10
50.931098248799998
 20
241.10123096160001
 11
50.928282162599999
 21
241.1466275619
  0
LINE
  8
_0-0_0
  6
CONTINUOUS
 62
    7
 10
50.094008947600003
 20
241.0624380365
 11
50.09859493419998
 21
241.01797656250002
  0
LINE
  8
_0-0_0
  6
CONTINUOUS
 62
    7
 10
50.09859493419998
 20
241.01797656250002
 11
50.106074188099996
 21
240.97778797470002
  0
LINE
  8
_0-0_0
  6
CONTINUOUS
 62
    7
 10
50.151417006999992
 20
240.8171231588
 11
50.157495996999984
 21
240.80031819430002
  0
LINE
  8
_0-0_0
  6
CONTINUOUS
 62
    7
 10
50.157495996999984
 20
240.80031819430002
 11
50.187138096199988
 21
240.7356212967
  0
LINE
  8
_0-0_0
  6
CONTINUOUS
 62
    7
 10
50.187138096199988
 20
240.7356212967
 11
50.220648894499988
 21
240.67617557200001
  0
LINE
  8
_0-0_0
  6
CONTINUOUS
 62
    7
 10
50.220648894499988
 20
240.67617557200001
 11
50.257187422899989
 21
240.62260756520001
  0
LINE
  8
_0-0_0
  6
CONTINUOUS
 62
    7
 10
50.257187422899989
 20
240.62260756520001
 11
50.29583064229999
 21
240.57540734
  0
LINE
  8
_0-0_0
  6
CONTINUOUS
 62
    7
 10
50.29583064229999
 20
240.57540734
 11
50.335597891199996
 21
240.53491148520001
  0
LINE
  8
_0-0_0
  6
CONTINUOUS
 62
    7
 10
50.335597891199996
 20
240.53491148520001
 11
50.375484235899989
 21
240.50128736580001
  0
LINE
  8
_0-0_0
  6
CONTINUOUS
 62
    7
 10
50.375484235899989
 20
240.50128736580001
 11
50.414508826999992
 21
240.47452051050001
  0
LINE
  8
_0-0_0
  6
CONTINUOUS
 62
    7
 10
50.414508826999992
 20
240.47452051050001
 11
50.420483663499994
 21
240.4712976138
  0
ARC
  8
_0-0_0
  6
CONTINUOUS
 62
    7
 10
53.745431729100005
 20
244.60138646140001
 40
13.150369293340431
 50
178.60387849899999
 51
180.73588309420003
  0
ARC
  8
_0-0_0
  6
CONTINUOUS
 62
    7
 10
27.919541867600003
 20
245.90658935100001
 40
12.184788922647799
 50
353.20383700769997
 51
355.49390838199997
  0
LINE
  8
_0-0_0
  6
CONTINUOUS
 62
    7
 10
40.580038481999992
 20
241.63544353750001
 11
40.584411995599993
 21
241.89866609680001
  0
LINE
  8
_0-0_0
  6
CONTINUOUS
 62
    7
 10
40.584411995599993
 20
241.89866609680001
 11
40.588601957599991
 21
242.15827849530001
  0
LINE
  8
_0-0_0
  6
CONTINUOUS
 62
    7
 10
40.588601957599991
 20
242.15827849530001
 11
40.592421698399988
 21
242.41048001530001
  0
LINE
  8
_0-0_0
  6
CONTINUOUS
 62
    7
 10
40.592421698399988
 20
242.41048001530001
 11
40.595725814600002
 21
242.65236647880002
  0
LINE
  8
_0-0_0
  6
CONTINUOUS
 62
    7
 10
40.595725814600002
 20
242.65236647880002
 11
40.598542617799978
 21
242.88474463970002
  0
LINE
  8
_0-0_0
  6
CONTINUOUS
 62
    7
 10
40.598542617799978
 20
242.88474463970002
 11
40.600845679299994
 21
243.1070554353
  0
LINE
  8
_0-0_0
  6
CONTINUOUS
 62
    7
 10
40.600845679299994
 20
243.1070554353
 11
40.602585515699985
 21
243.31823007150001
  0
LINE
  8
_0-0_0
  6
CONTINUOUS
 62
    7
 10
40.602585515699985
 20
243.31823007150001
 11
40.603718199399992
 21
243.51748298460001
  0
LINE
  8
_0-0_0
  6
CONTINUOUS
 62
    7
 10
40.603718199399992
 20
243.51748298460001
 11
40.604211650299987
 21
243.70426193440002
  0
LINE
  8
_0-0_0
  6
CONTINUOUS
 62
    7
 10
40.604211650299987
 20
243.70426193440002
 11
40.604057992200012
 21
243.87831779850001
  0
LINE
  8
_0-0_0
  6
CONTINUOUS
 62
    7
 10
40.604057992200012
 20
243.87831779850001
 11
40.603193053300004
 21
244.03834916320002
  0
LINE
  8
_0-0_0
  6
CONTINUOUS
 62
    7
 10
40.603193053300004
 20
244.03834916320002
 11
40.601414447799982
 21
244.1806210016
  0
LINE
  8
_0-0_0
  6
CONTINUOUS
 62
    7
 10
40.601414447799982
 20
244.1806210016
 11
40.598956596800008
 21
244.3097084467
  0
LINE
  8
_0-0_0
  6
CONTINUOUS
 62
    7
 10
40.598956596800008
 20
244.3097084467
 11
40.596159940799993
 21
244.43219027810002
  0
LINE
  8
_0-0_0
  6
CONTINUOUS
 62
    7
 10
40.018514586700007
 20
244.4631562063
 11
40.002608617600004
 21
244.34143652380001
  0
LINE
  8
_0-0_0
  6
CONTINUOUS
 62
    7
 10
40.002608617600004
 20
244.34143652380001
 11
39.986370510600011
 21
244.21312983270002
  0
LINE
  8
_0-0_0
  6
CONTINUOUS
 62
    7
 10
39.986370510600011
 20
244.21312983270002
 11
39.96946797999999
 21
244.07166799790002
  0
LINE
  8
_0-0_0
  6
CONTINUOUS
 62
    7
 10
39.96946797999999
 20
244.07166799790002
 11
39.951667807999996
 21
243.91248072190001
  0
LINE
  8
_0-0_0
  6
CONTINUOUS
 62
    7
 10
39.951667807999996
 20
243.91248072190001
 11
39.933151409599986
 21
243.73929765940002
  0
LINE
  8
_0-0_0
  6
CONTINUOUS
 62
    7
 10
39.933151409599986
 20
243.73929765940002
 11
39.91398958169998
 21
243.55341727930002
  0
LINE
  8
_0-0_0
  6
CONTINUOUS
 62
    7
 10
39.91398958169998
 20
243.55341727930002
 11
39.894201624900006
 21
243.35508623700002
  0
LINE
  8
_0-0_0
  6
CONTINUOUS
 62
    7
 10
39.894201624900006
 20
243.35508623700002
 11
39.873813427100004
 21
243.1448544438
  0
LINE
  8
_0-0_0
  6
CONTINUOUS
 62
    7
 10
39.873813427100004
 20
243.1448544438
 11
39.852862672800001
 21
242.92350431260002
  0
LINE
  8
_0-0_0
  6
CONTINUOUS
 62
    7
 10
39.852862672800001
 20
242.92350431260002
 11
39.831410078399983
 21
242.69209865530001
  0
LINE
  8
_0-0_0
  6
CONTINUOUS
 62
    7
 10
39.831410078399983
 20
242.69209865530001
 11
39.809488832299991
 21
242.4511944134
  0
LINE
  8
_0-0_0
  6
CONTINUOUS
 62
    7
 10
39.809488832299991
 20
242.4511944134
 11
39.787050587199985
 21
242.19999230850001
  0
LINE
  8
_0-0_0
  6
CONTINUOUS
 62
    7
 10
39.787050587199985
 20
242.19999230850001
 11
39.764240231599985
 21
241.94137416840002
  0
LINE
  8
_0-0_0
  6
CONTINUOUS
 62
    7
 10
39.764240231599985
 20
241.94137416840002
 11
39.7412502631
 21
241.67911482390002
  0
LINE
  8
_0-0_0
  6
CONTINUOUS
 62
    7
 10
40.560327971899994
 20
241.2575041952
 11
40.561780900999992
 21
241.28531093980001
  0
LINE
  8
_0-0_0
  6
CONTINUOUS
 62
    7
 10
40.561780900999992
 20
241.28531093980001
 11
40.563526851500001
 21
241.3188181161
  0
LINE
  8
_0-0_0
  6
CONTINUOUS
 62
    7
 10
40.563526851500001
 20
241.3188181161
 11
40.564828679899989
 21
241.34397176320002
  0
LINE
  8
_0-0_0
  6
CONTINUOUS
 62
    7
 10
40.564828679899989
 20
241.34397176320002
 11
40.565918749899993
 21
241.36514025600002
  0
LINE
  8
_0-0_0
  6
CONTINUOUS
 62
    7
 10
40.565918749899993
 20
241.36514025600002
 11
40.566714934199979
 21
241.38058793160002
  0
LINE
  8
_0-0_0
  6
CONTINUOUS
 62
    7
 10
40.566714934199979
 20
241.38058793160002
 11
40.567489581299981
 21
241.39556254040002
  0
LINE
  8
_0-0_0
  6
CONTINUOUS
 62
    7
 10
40.567489581299981
 20
241.39556254040002
 11
40.568248024899987
 21
241.41015528710003
  0
LINE
  8
_0-0_0
  6
CONTINUOUS
 62
    7
 10
40.568248024899987
 20
241.41015528710003
 11
40.569336258100009
 21
241.43095863330001
  0
LINE
  8
_0-0_0
  6
CONTINUOUS
 62
    7
 10
40.569336258100009
 20
241.43095863330001
 11
40.57163186599999
 21
241.47508636860002
  0
LINE
  8
_0-0_0
  6
CONTINUOUS
 62
    7
 10
40.57163186599999
 20
241.47508636860002
 11
40.574838593899983
 21
241.54260915420002
  0
LINE
  8
_0-0_0
  6
CONTINUOUS
 62
    7
 10
40.574838593899983
 20
241.54260915420002
 11
40.579840286500001
 21
241.63237366700002
  0
ARC
  8
_0-0_0
  6
CONTINUOUS
 62
    7
 10
-114.1051821872
 20
249.59311027540002
 40
154.04988158680169
 50
356.91317814870001
 51
357.0540967723
  0
ARC
  8
_0-0_0
  6
CONTINUOUS
 62
    7
 10
40.680522896100001
 20
251.59173044650001
 40
0.1550781250000311
 50
348.02052011299998
 51
185.57966061180002
  0
LINE
  8
_0-0_0
  6
CONTINUOUS
 62
    7
 10
40.83581511609998
 20
251.60232690390001
 11
40.834747293100008
 21
251.6079803762
  0
LINE
  8
_0-0_0
  6
CONTINUOUS
 62
    7
 10
40.529070895100006
 20
251.62506985650001
 11
40.335737595500007
 21
250.9964658177
  0
LINE
  8
_0-0_0
  6
CONTINUOUS
 62
    7
 10
40.335770562199997
 20
250.99654740210002
 11
40.333450239000001
 21
250.98574056550001
  0
ARC
  8
_0-0_0
  6
CONTINUOUS
 62
    7
 10
40.278796596999996
 20
250.95425831700001
 40
0.0490624577356377
 50
313.79542569369994
 51
4.9408312440999973
  0
LINE
  8
_0-0_0
  6
CONTINUOUS
 62
    7
 10
40.307574139999986
 20
250.90507946220001
 11
40.292216039899984
 21
250.83049807720002
  0
LINE
  8
_0-0_0
  6
CONTINUOUS
 62
    7
 10
40.292216039899984
 20
250.83049807720002
 11
40.292324848699991
 21
250.76784188320002
  0
ARC
  8
_0-0_0
  6
CONTINUOUS
 62
    7
 10
64.427629335699976
 20
248.509701017
 40
23.55467326807452
 50
175.17116896440001
 51
176.53426383479999
  0
ARC
  8
_0-0_0
  6
CONTINUOUS
 62
    7
 10
-24.784126347799997
 20
252.29997618530001
 40
65.09388420614502
 50
357.94485740020008
 51
358.61772200340005
  0
LINE
  8
_0-0_0
  6
CONTINUOUS
 62
    7
 10
40.291737444099994
 20
250.7571818573
 11
40.290970591100006
 21
250.72534765820001
  0
LINE
  8
_0-0_0
  6
CONTINUOUS
 62
    7
 10
40.290970591100006
 20
250.72534765820001
 11
40.293702323899993
 21
250.68474947230001
  0
ARC
  8
_0-0_0
  6
CONTINUOUS
 62
    7
 10
43.240460738699994
 20
251.5320788276
 40
2.993438718067249
 50
155.56358544049999
 51
191.817646967
  0
LINE
  8
_0-0_0
  6
CONTINUOUS
 62
    7
 10
40.312928838000005
 20
250.906685694
 11
40.316928746499997
 21
250.88660568840001
  0
ARC
  8
_0-0_0
  6
CONTINUOUS
 62
    7
 10
38.324398457900003
 20
251.8154278172
 40
2.7740941222762681
 50
2.5453689904000001
 51
19.7165512101
  0
ARC
  8
_0-0_0
  6
CONTINUOUS
 62
    7
 10
39.375148634999988
 20
241.29218335990001
 40
1.185697894783982
 50
353.08053765009998
 51
358.38185094120001
  0
LINE
  8
_0-0_0
  6
CONTINUOUS
 62
    7
 10
39.7212165304
 20
241.29832508600001
 11
39.721138618800012
 21
241.29686669470001
  0
LINE
  8
_0-0_0
  6
CONTINUOUS
 62
    7
 10
39.721138618800012
 20
241.29686669470001
 11
39.720217868600002
 21
241.27970098500001
  0
LINE
  8
_0-0_0
  6
CONTINUOUS
 62
    7
 10
39.720217868600002
 20
241.27970098500001
 11
39.719418073199989
 21
241.26480506920001
  0
LINE
  8
_0-0_0
  6
CONTINUOUS
 62
    7
 10
39.719418073199989
 20
241.26480506920001
 11
39.71855199769999
 21
241.2485873846
  0
LINE
  8
_0-0_0
  6
CONTINUOUS
 62
    7
 10
39.71855199769999
 20
241.2485873846
 11
39.717598196799997
 21
241.23053850670001
  0
LINE
  8
_0-0_0
  6
CONTINUOUS
 62
    7
 10
39.717598196799997
 20
241.23053850670001
 11
39.71626324990001
 21
241.2049224573
  0
LINE
  8
_0-0_0
  6
CONTINUOUS
 62
    7
 10
39.71626324990001
 20
241.2049224573
 11
39.715110320099996
 21
241.18299402860001
  0
LINE
  8
_0-0_0
  6
CONTINUOUS
 62
    7
 10
39.715110320099996
 20
241.18299402860001
 11
39.714264049199983
 21
241.16711771220002
  0
LINE
  8
_0-0_0
  6
CONTINUOUS
 62
    7
 10
39.714264049199983
 20
241.16711771220002
 11
39.713846630599988
 21
241.15838789470001
  0
LINE
  8
_0-0_0
  6
CONTINUOUS
 62
    7
 10
39.713846630599988
 20
241.15838789470001
 11
39.713755828099977
 21
241.1562580504
  0
LINE
  8
_0-0_0
  6
CONTINUOUS
 62
    7
 10
39.713755828099977
 20
241.1562580504
 11
39.713767557199986
 21
241.15641230280002
  0
ARC
  8
_0-0_0
  6
CONTINUOUS
 62
    7
 10
39.862705573499994
 20
241.02857537260002
 40
0.6625385335970086
 50
302.75897721780001
 51
341.38792228889997
  0
ARC
  8
_0-0_0
  6
CONTINUOUS
 62
    7
 10
39.9676604661
 20
241.1054311922
 40
0.582989627210864
 50
347.49227243320001
 51
358.38260574079999
  0
LINE
  8
_0-0_0
  6
CONTINUOUS
 62
    7
 10
39.71372148590001
 20
241.1466186433
 11
39.711850164800012
 21
241.1251620779
  0
LINE
  8
_0-0_0
  6
CONTINUOUS
 62
    7
 10
39.711850164800012
 20
241.1251620779
 11
39.711408705499991
 21
241.0476789155
  0
LINE
  8
_0-0_0
  6
CONTINUOUS
 62
    7
 10
39.711408705499991
 20
241.0476789155
 11
39.717177889499993
 21
240.97144108020001
  0
LINE
  8
_0-0_0
  6
CONTINUOUS
 62
    7
 10
39.717177889499993
 20
240.97144108020001
 11
39.728884046699989
 21
240.89748255810002
  0
LINE
  8
_0-0_0
  6
CONTINUOUS
 62
    7
 10
39.728884046699989
 20
240.89748255810002
 11
39.746111510099979
 21
240.8267706375
  0
LINE
  8
_0-0_0
  6
CONTINUOUS
 62
    7
 10
39.746111510099979
 20
240.8267706375
 11
39.768310415499997
 21
240.7602013668
  0
LINE
  8
_0-0_0
  6
CONTINUOUS
 62
    7
 10
39.768310415499997
 20
240.7602013668
 11
39.794806631399979
 21
240.69857968190001
  0
LINE
  8
_0-0_0
  6
CONTINUOUS
 62
    7
 10
39.794806631399979
 20
240.69857968190001
 11
39.82481513099998
 21
240.64259945880002
  0
LINE
  8
_0-0_0
  6
CONTINUOUS
 62
    7
 10
39.82481513099998
 20
240.64259945880002
 11
39.857457929299983
 21
240.59282342240002
  0
LINE
  8
_0-0_0
  6
CONTINUOUS
 62
    7
 10
39.857457929299983
 20
240.59282342240002
 11
39.891788698499994
 21
240.54966292600002
  0
LINE
  8
_0-0_0
  6
CONTINUOUS
 62
    7
 10
39.891788698499994
 20
240.54966292600002
 11
39.926828175099985
 21
240.51335793870001
  0
LINE
  8
_0-0_0
  6
CONTINUOUS
 62
    7
 10
39.926828175099985
 20
240.51335793870001
 11
39.954790001300012
 21
240.48972919660002
  0
LINE
  8
_0-0_0
  6
CONTINUOUS
 62
    7
 10
50.076555016399993
 20
241.35866390530001
 11
50.066399069499994
 21
241.35861671230001
  0
LINE
  8
_0-0_0
  6
CONTINUOUS
 62
    7
 10
40.575741226300011
 20
241.35861764330002
 11
40.565585295000005
 21
241.35866476630002
  0
LINE
  8
_0-0_0
  6
CONTINUOUS
 62
    7
 10
40.463745486199997
 20
240.81719393980001
 11
40.640302442700005
 21
240.81670888440001
  0
LINE
  8
_0-0_0
  6
CONTINUOUS
 62
    7
 10
50.003844009200009
 20
240.8167263007
 11
50.009993694900004
 21
240.81674283870001
  0
LINE
  8
_0-0_0
  6
CONTINUOUS
 62
    7
 10
50.017046984800004
 20
240.8167618066
 11
50.178396313399986
 21
240.81719571250002
  0
LINE
  8
_0-0_0
  6
CONTINUOUS
 62
    7
 10
48.484077484199986
 20
250.49267247700001
 11
48.484245629100002
 21
250.49233857990001
  0
LINE
  8
_0-0_0
  6
CONTINUOUS
 62
    7
 10
48.484245629100002
 20
250.49233857990001
 11
48.486225723800004
 21
250.4917191115
  0
LINE
  8
_0-0_0
  6
CONTINUOUS
 62
    7
 10
48.486225723800004
 20
250.4917191115
 11
48.495350813899989
 21
250.49021704330002
  0
LINE
  8
_0-0_0
  6
CONTINUOUS
 62
    7
 10
48.495350813899989
 20
250.49021704330002
 11
48.511376811399998
 21
250.48848318330002
  0
LINE
  8
_0-0_0
  6
CONTINUOUS
 62
    7
 10
48.511376811399998
 20
250.48848318330002
 11
48.534321725700011
 21
250.4867435056
  0
LINE
  8
_0-0_0
  6
CONTINUOUS
 62
    7
 10
48.534321725700011
 20
250.4867435056
 11
48.564198934399997
 21
250.48534150220001
  0
LINE
  8
_0-0_0
  6
CONTINUOUS
 62
    7
 10
48.564198934399997
 20
250.48534150220001
 11
48.600348288899994
 21
250.48477400500002
  0
LINE
  8
_0-0_0
  6
CONTINUOUS
 62
    7
 10
48.600348288899994
 20
250.48477400500002
 11
48.646346983400008
 21
250.48588751140002
  0
LINE
  8
_0-0_0
  6
CONTINUOUS
 62
    7
 10
48.646346983400008
 20
250.48588751140002
 11
48.686665745499994
 21
250.4885595977
  0
LINE
  8
_0-0_0
  6
CONTINUOUS
 62
    7
 10
48.686665745499994
 20
250.4885595977
 11
48.721324275399979
 21
250.492035007
  0
LINE
  8
_0-0_0
  6
CONTINUOUS
 62
    7
 10
48.721324275399979
 20
250.492035007
 11
48.743609493299999
 21
250.49477679420002
  0
LINE
  8
_0-0_0
  6
CONTINUOUS
 62
    7
 10
48.743609493299999
 20
250.49477679420002
 11
48.75355662459998
 21
250.49610864680002
  0
LINE
  8
_0-0_0
  6
CONTINUOUS
 62
    7
 10
48.75355662459998
 20
250.49610864680002
 11
48.762707960400007
 21
250.49738431170002
  0
LINE
  8
_0-0_0
  6
CONTINUOUS
 62
    7
 10
48.762707960400007
 20
250.49738431170002
 11
48.771063962200003
 21
250.49858642630002
  0
LINE
  8
_0-0_0
  6
CONTINUOUS
 62
    7
 10
48.771063962200003
 20
250.49858642630002
 11
48.778624688500003
 21
250.49970190820002
  0
LINE
  8
_0-0_0
  6
CONTINUOUS
 62
    7
 10
48.778624688500003
 20
250.49970190820002
 11
48.785389771799998
 21
250.50072193690002
  0
LINE
  8
_0-0_0
  6
CONTINUOUS
 62
    7
 10
48.785389771799998
 20
250.50072193690002
 11
48.7913047312
 21
250.50163244140001
  0
LINE
  8
_0-0_0
  6
CONTINUOUS
 62
    7
 10
48.7913047312
 20
250.50163244140001
 11
48.799975313700003
 21
250.503008599
  0
LINE
  8
_0-0_0
  6
CONTINUOUS
 62
    7
 10
48.799975313700003
 20
250.503008599
 11
48.804392614400001
 21
250.503778705
  0
LINE
  8
_0-0_0
  6
CONTINUOUS
 62
    7
 10
48.804392614400001
 20
250.503778705
 11
48.803328009300003
 21
250.50372948660001
  0
LINE
  8
_0-0_0
  6
CONTINUOUS
 62
    7
 10
45.32113877590001
 20
250.5340368283
 11
45.538309306999992
 21
250.54210560600001
  0
LINE
  8
_0-0_0
  6
CONTINUOUS
 62
    7
 10
45.538309306999992
 20
250.54210560600001
 11
45.76250763409999
 21
250.54849093570002
  0
LINE
  8
_0-0_0
  6
CONTINUOUS
 62
    7
 10
45.76250763409999
 20
250.54849093570002
 11
45.967963486000002
 21
250.55261034690002
  0
LINE
  8
_0-0_0
  6
CONTINUOUS
 62
    7
 10
45.967963486000002
 20
250.55261034690002
 11
46.154612319999984
 21
250.55485465660001
  0
LINE
  8
_0-0_0
  6
CONTINUOUS
 62
    7
 10
46.154612319999984
 20
250.55485465660001
 11
46.322398605399997
 21
250.55560889530003
  0
LINE
  8
_0-0_0
  6
CONTINUOUS
 62
    7
 10
46.322398605399997
 20
250.55560889530003
 11
46.471275298999984
 21
250.55524337560001
  0
LINE
  8
_0-0_0
  6
CONTINUOUS
 62
    7
 10
46.471275298999984
 20
250.55524337560001
 11
46.601203129699996
 21
250.55410584100002
  0
LINE
  8
_0-0_0
  6
CONTINUOUS
 62
    7
 10
46.601203129699996
 20
250.55410584100002
 11
46.712149767499994
 21
250.552514653
  0
LINE
  8
_0-0_0
  6
CONTINUOUS
 62
    7
 10
46.712149767499994
 20
250.552514653
 11
46.804088940899987
 21
250.55075301640002
  0
LINE
  8
_0-0_0
  6
CONTINUOUS
 62
    7
 10
46.804088940899987
 20
250.55075301640002
 11
46.876999568700001
 21
250.54906410410001
  0
LINE
  8
_0-0_0
  6
CONTINUOUS
 62
    7
 10
46.876999568700001
 20
250.54906410410001
 11
46.931755554799992
 21
250.54762232830001
  0
LINE
  8
_0-0_0
  6
CONTINUOUS
 62
    7
 10
46.931755554799992
 20
250.54762232830001
 11
46.98126882759999
 21
250.54618709870002
  0
LINE
  8
_0-0_0
  6
CONTINUOUS
 62
    7
 10
46.98126882759999
 20
250.54618709870002
 11
47.062214711799982
 21
250.54356455160001
  0
LINE
  8
_0-0_0
  6
CONTINUOUS
 62
    7
 10
47.062214711799982
 20
250.54356455160001
 11
47.09324833689999
 21
250.5424663233
  0
LINE
  8
_0-0_0
  6
CONTINUOUS
 62
    7
 10
47.09324833689999
 20
250.5424663233
 11
47.123845919199994
 21
250.54133239060002
  0
LINE
  8
_0-0_0
  6
CONTINUOUS
 62
    7
 10
47.123845919199994
 20
250.54133239060002
 11
47.140981985800011
 21
250.5406777707
  0
LINE
  8
_0-0_0
  6
CONTINUOUS
 62
    7
 10
47.140981985800011
 20
250.5406777707
 11
47.157904349700004
 21
250.54002891340002
  0
LINE
  8
_0-0_0
  6
CONTINUOUS
 62
    7
 10
47.157904349700004
 20
250.54002891340002
 11
47.174607765399998
 21
250.53940810290001
  0
LINE
  8
_0-0_0
  6
CONTINUOUS
 62
    7
 10
47.174607765399998
 20
250.53940810290001
 11
47.191086511799995
 21
250.53884835210002
  0
LINE
  8
_0-0_0
  6
CONTINUOUS
 62
    7
 10
47.191086511799995
 20
250.53884835210002
 11
47.223345420899989
 21
250.5380917228
  0
LINE
  8
_0-0_0
  6
CONTINUOUS
 62
    7
 10
47.223345420899989
 20
250.5380917228
 11
47.254631518099984
 21
250.53819195610001
  0
LINE
  8
_0-0_0
  6
CONTINUOUS
 62
    7
 10
47.254631518099984
 20
250.53819195610001
 11
47.289141823699993
 21
250.5399969792
  0
LINE
  8
_0-0_0
  6
CONTINUOUS
 62
    7
 10
47.289141823699993
 20
250.5399969792
 11
47.32229939230001
 21
250.54425880890003
  0
LINE
  8
_0-0_0
  6
CONTINUOUS
 62
    7
 10
47.32229939230001
 20
250.54425880890003
 11
47.354156219900005
 21
250.55135226270002
  0
LINE
  8
_0-0_0
  6
CONTINUOUS
 62
    7
 10
47.354156219900005
 20
250.55135226270002
 11
47.384898878000001
 21
250.56100416240002
  0
LINE
  8
_0-0_0
  6
CONTINUOUS
 62
    7
 10
47.384898878000001
 20
250.56100416240002
 11
47.414918536899989
 21
250.57186856730002
  0
LINE
  8
_0-0_0
  6
CONTINUOUS
 62
    7
 10
47.414918536899989
 20
250.57186856730002
 11
47.444895864499983
 21
250.58099712430001
  0
LINE
  8
_0-0_0
  6
CONTINUOUS
 62
    7
 10
47.444895864499983
 20
250.58099712430001
 11
47.468009304499986
 21
250.58274467060002
  0
LINE
  8
_0-0_0
  6
CONTINUOUS
 62
    7
 10
49.708095874399987
 20
251.8738815225
 11
49.676218679199991
 21
251.8870097784
  0
LINE
  8
_0-0_0
  6
CONTINUOUS
 62
    7
 10
49.676218679199991
 20
251.8870097784
 11
49.605322322700005
 21
251.9148961743
  0
LINE
  8
_0-0_0
  6
CONTINUOUS
 62
    7
 10
49.605322322700005
 20
251.9148961743
 11
49.550811181699999
 21
251.9368061744
  0
LINE
  8
_0-0_0
  6
CONTINUOUS
 62
    7
 10
49.550811181699999
 20
251.9368061744
 11
49.512850486399998
 21
251.95232052280002
  0
LINE
  8
_0-0_0
  6
CONTINUOUS
 62
    7
 10
49.512850486399998
 20
251.95232052280002
 11
49.484561897099979
 21
251.96413393840001
  0
LINE
  8
_0-0_0
  6
CONTINUOUS
 62
    7
 10
49.484561897099979
 20
251.96413393840001
 11
49.451879302900011
 21
251.97778358280001
  0
LINE
  8
_0-0_0
  6
CONTINUOUS
 62
    7
 10
49.451879302900011
 20
251.97778358280001
 11
49.390774188999984
 21
252.0031448748
  0
LINE
  8
_0-0_0
  6
CONTINUOUS
 62
    7
 10
49.390774188999984
 20
252.0031448748
 11
49.317689572500001
 21
252.03306420230001
  0
LINE
  8
_0-0_0
  6
CONTINUOUS
 62
    7
 10
49.317689572500001
 20
252.03306420230001
 11
49.232536292100008
 21
252.0672337117
  0
LINE
  8
_0-0_0
  6
CONTINUOUS
 62
    7
 10
49.232536292100008
 20
252.0672337117
 11
49.099405294399986
 21
252.1190084847
  0
LINE
  8
_0-0_0
  6
CONTINUOUS
 62
    7
 10
49.099405294399986
 20
252.1190084847
 11
48.944159508599995
 21
252.176710789
  0
LINE
  8
_0-0_0
  6
CONTINUOUS
 62
    7
 10
48.944159508599995
 20
252.176710789
 11
48.779059938499984
 21
252.2348444566
  0
LINE
  8
_0-0_0
  6
CONTINUOUS
 62
    7
 10
48.779059938499984
 20
252.2348444566
 11
48.624638475599994
 21
252.28623790180001
  0
LINE
  8
_0-0_0
  6
CONTINUOUS
 62
    7
 10
48.624638475599994
 20
252.28623790180001
 11
48.423440556599985
 21
252.3489436742
  0
LINE
  8
_0-0_0
  6
CONTINUOUS
 62
    7
 10
48.423440556599985
 20
252.3489436742
 11
48.245610543999987
 21
252.4007411229
  0
LINE
  8
_0-0_0
  6
CONTINUOUS
 62
    7
 10
48.245610543999987
 20
252.4007411229
 11
48.091387735300003
 21
252.44305555300002
  0
LINE
  8
_0-0_0
  6
CONTINUOUS
 62
    7
 10
48.091387735300003
 20
252.44305555300002
 11
47.953947235599998
 21
252.47874840260002
  0
LINE
  8
_0-0_0
  6
CONTINUOUS
 62
    7
 10
47.953947235599998
 20
252.47874840260002
 11
47.828340432099992
 21
252.50972980600002
  0
LINE
  8
_0-0_0
  6
CONTINUOUS
 62
    7
 10
47.828340432099992
 20
252.50972980600002
 11
47.722357508800002
 21
252.53469957350001
  0
LINE
  8
_0-0_0
  6
CONTINUOUS
 62
    7
 10
47.722357508800002
 20
252.53469957350001
 11
47.597410003499988
 21
252.56276682320001
  0
LINE
  8
_0-0_0
  6
CONTINUOUS
 62
    7
 10
47.597410003499988
 20
252.56276682320001
 11
47.45526888500001
 21
252.59282158340002
  0
LINE
  8
_0-0_0
  6
CONTINUOUS
 62
    7
 10
47.45526888500001
 20
252.59282158340002
 11
47.30733406600001
 21
252.62212407500002
  0
LINE
  8
_0-0_0
  6
CONTINUOUS
 62
    7
 10
47.30733406600001
 20
252.62212407500002
 11
47.18839374869998
 21
252.64431592290001
  0
LINE
  8
_0-0_0
  6
CONTINUOUS
 62
    7
 10
47.18839374869998
 20
252.64431592290001
 11
47.06707669779999
 21
252.66571097350001
  0
LINE
  8
_0-0_0
  6
CONTINUOUS
 62
    7
 10
47.06707669779999
 20
252.66571097350001
 11
46.949435750600003
 21
252.68523653380001
  0
LINE
  8
_0-0_0
  6
CONTINUOUS
 62
    7
 10
46.949435750600003
 20
252.68523653380001
 11
46.8540989599
 21
252.70015607340002
  0
LINE
  8
_0-0_0
  6
CONTINUOUS
 62
    7
 10
46.8540989599
 20
252.70015607340002
 11
46.797640651400002
 21
252.70861168420001
  0
LINE
  8
_0-0_0
  6
CONTINUOUS
 62
    7
 10
46.797640651400002
 20
252.70861168420001
 11
46.754803855599988
 21
252.71484004210001
  0
LINE
  8
_0-0_0
  6
CONTINUOUS
 62
    7
 10
46.754803855599988
 20
252.71484004210001
 11
46.710097320300008
 21
252.7211719396
  0
LINE
  8
_0-0_0
  6
CONTINUOUS
 62
    7
 10
46.710097320300008
 20
252.7211719396
 11
46.642956863199998
 21
252.7303679984
  0
LINE
  8
_0-0_0
  6
CONTINUOUS
 62
    7
 10
46.642956863199998
 20
252.7303679984
 11
46.553252582999988
 21
252.74207167240002
  0
LINE
  8
_0-0_0
  6
CONTINUOUS
 62
    7
 10
46.553252582999988
 20
252.74207167240002
 11
46.44095170769998
 21
252.75579175960002
  0
LINE
  8
_0-0_0
  6
CONTINUOUS
 62
    7
 10
46.44095170769998
 20
252.75579175960002
 11
46.306027447299982
 21
252.77092043740001
  0
LINE
  8
_0-0_0
  6
CONTINUOUS
 62
    7
 10
46.306027447299982
 20
252.77092043740001
 11
46.148467014999994
 21
252.78673239450001
  0
LINE
  8
_0-0_0
  6
CONTINUOUS
 62
    7
 10
46.148467014999994
 20
252.78673239450001
 11
45.968279237699988
 21
252.80237411570002
  0
LINE
  8
_0-0_0
  6
CONTINUOUS
 62
    7
 10
45.968279237699988
 20
252.80237411570002
 11
45.765500391099977
 21
252.8168368279
  0
LINE
  8
_0-0_0
  6
CONTINUOUS
 62
    7
 10
45.765500391099977
 20
252.8168368279
 11
45.5401966238
 21
252.8289048373
  0
LINE
  8
_0-0_0
  6
CONTINUOUS
 62
    7
 10
45.5401966238
 20
252.8289048373
 11
45.3210697138
 21
252.83616455740002
  0
ARC
  8
_0-0_0
  6
CONTINUOUS
 62
    7
 10
49.66527196109999
 20
251.78032490320001
 40
0.1031805188645108
 50
1.3569237748
 51
66.762549367300011
  0
ARC
  8
_0-0_0
  6
CONTINUOUS
 62
    7
 10
44.157313123599977
 20
320.20805802000001
 40
70.995021107825679
 50
270.93925023079998
 51
271.36884488419997
  0
ARC
  8
_0-0_0
  6
CONTINUOUS
 62
    7
 10
50.182305504499993
 20
251.37015542340001
 40
0.3887069657700074
 50
162.30528902340001
 51
169.32596921379999
  0
LINE
  8
_0-0_0
  6
CONTINUOUS
 62
    7
 10
49.895281154299994
 20
251.73104890720001
 11
49.89507045549999
 21
251.7565649384
  0
LINE
  8
_0-0_0
  6
CONTINUOUS
 62
    7
 10
49.89507045549999
 20
251.7565649384
 11
49.884941899500006
 21
251.7824711977
  0
LINE
  8
_0-0_0
  6
CONTINUOUS
 62
    7
 10
49.884941899500006
 20
251.7824711977
 11
49.870626289099988
 21
251.79851408660002
  0
LINE
  8
_0-0_0
  6
CONTINUOUS
 62
    7
 10
49.870626289099988
 20
251.79851408660002
 11
49.863364425899988
 21
251.80361793330002
  0
LINE
  8
_0-0_0
  6
CONTINUOUS
 62
    7
 10
49.863364425899988
 20
251.80361793330002
 11
49.856498823700008
 21
251.80730336670001
  0
LINE
  8
_0-0_0
  6
CONTINUOUS
 62
    7
 10
49.856498823700008
 20
251.80730336670001
 11
49.830626483900005
 21
251.8138332231
  0
LINE
  8
_0-0_0
  6
CONTINUOUS
 62
    7
 10
49.830626483900005
 20
251.8138332231
 11
49.81715460800001
 21
251.813301349
  0
LINE
  8
_0-0_0
  6
CONTINUOUS
 62
    7
 10
49.81715460800001
 20
251.813301349
 11
49.803548140299995
 21
251.8100367836
  0
LINE
  8
_0-0_0
  6
CONTINUOUS
 62
    7
 10
49.803548140299995
 20
251.8100367836
 11
49.791686913299998
 21
251.8046009192
  0
LINE
  8
_0-0_0
  6
CONTINUOUS
 62
    7
 10
49.791686913299998
 20
251.8046009192
 11
49.782264200899988
 21
251.79804627830001
  0
LINE
  8
_0-0_0
  6
CONTINUOUS
 62
    7
 10
49.782264200899988
 20
251.79804627830001
 11
49.767811574199982
 21
251.78209275270001
  0
LINE
  8
_0-0_0
  6
CONTINUOUS
 62
    7
 10
49.767811574199982
 20
251.78209275270001
 11
49.747961591299998
 21
251.7413222939
  0
LINE
  8
_0-0_0
  6
CONTINUOUS
 62
    7
 10
49.747961591299998
 20
251.7413222939
 11
49.73785793579998
 21
251.7146441564
  0
LINE
  8
_0-0_0
  6
CONTINUOUS
 62
    7
 10
49.73785793579998
 20
251.7146441564
 11
49.727451337099978
 21
251.6853831407
  0
LINE
  8
_0-0_0
  6
CONTINUOUS
 62
    7
 10
49.727451337099978
 20
251.6853831407
 11
49.707168265699977
 21
251.62467169020002
  0
LINE
  8
_0-0_0
  6
CONTINUOUS
 62
    7
 10
49.707168265699977
 20
251.62467169020002
 11
49.695034821399986
 21
251.58623152130002
  0
LINE
  8
_0-0_0
  6
CONTINUOUS
 62
    7
 10
49.695034821399986
 20
251.58623152130002
 11
49.6813594459
 21
251.54048025450001
  0
LINE
  8
_0-0_0
  6
CONTINUOUS
 62
    7
 10
49.6813594459
 20
251.54048025450001
 11
49.668696524799998
 21
251.49393888630001
  0
LINE
  8
_0-0_0
  6
CONTINUOUS
 62
    7
 10
49.668696524799998
 20
251.49393888630001
 11
49.664030066000009
 21
251.4740016977
  0
LINE
  8
_0-0_0
  6
CONTINUOUS
 62
    7
 10
49.664030066000009
 20
251.4740016977
 11
49.663882370199985
 21
251.47316921950002
  0
LINE
  8
_0-0_0
  6
CONTINUOUS
 62
    7
 10
49.690205958599989
 20
250.5092660375
 11
49.800274254800001
 21
251.44171775140001
  0
ARC
  8
_0-0_0
  6
CONTINUOUS
 62
    7
 10
49.62000618830001
 20
250.51398482800002
 40
0.0695522562183776
 50
193.8588514429
 51
355.57777128560002
  0
LINE
  8
_0-0_0
  6
CONTINUOUS
 62
    7
 10
45.32107055329999
 20
252.83616455740002
 11
45.10194364329999
 21
252.8289048373
  0
LINE
  8
_0-0_0
  6
CONTINUOUS
 62
    7
 10
45.10194364329999
 20
252.8289048373
 11
44.8766398761
 21
252.8168368279
  0
LINE
  8
_0-0_0
  6
CONTINUOUS
 62
    7
 10
44.8766398761
 20
252.8168368279
 11
44.673861029400001
 21
252.80237411570002
  0
LINE
  8
_0-0_0
  6
CONTINUOUS
 62
    7
 10
44.673861029400001
 20
252.80237411570002
 11
44.493673252099995
 21
252.78673239450001
  0
LINE
  8
_0-0_0
  6
CONTINUOUS
 62
    7
 10
44.493673252099995
 20
252.78673239450001
 11
44.336112819899995
 21
252.77092043740001
  0
LINE
  8
_0-0_0
  6
CONTINUOUS
 62
    7
 10
44.336112819899995
 20
252.77092043740001
 11
44.201188559400009
 21
252.75579175960002
  0
LINE
  8
_0-0_0
  6
CONTINUOUS
 62
    7
 10
44.201188559400009
 20
252.75579175960002
 11
44.094906325699981
 21
252.74283317370001
  0
LINE
  8
_0-0_0
  6
CONTINUOUS
 62
    7
 10
44.094906325699981
 20
252.74283317370001
 11
44.008626117099993
 21
252.7316313128
  0
LINE
  8
_0-0_0
  6
CONTINUOUS
 62
    7
 10
44.008626117099993
 20
252.7316313128
 11
43.942320735099997
 21
252.7226039745
  0
LINE
  8
_0-0_0
  6
CONTINUOUS
 62
    7
 10
43.942320735099997
 20
252.7226039745
 11
43.895963443799985
 21
252.7160750102
  0
LINE
  8
_0-0_0
  6
CONTINUOUS
 62
    7
 10
43.895963443799985
 20
252.7160750102
 11
43.858599530199996
 21
252.71067954530002
  0
LINE
  8
_0-0_0
  6
CONTINUOUS
 62
    7
 10
43.858599530199996
 20
252.71067954530002
 11
43.809653720200004
 21
252.70342616000002
  0
LINE
  8
_0-0_0
  6
CONTINUOUS
 62
    7
 10
43.809653720200004
 20
252.70342616000002
 11
43.736509347999998
 21
252.69219199630001
  0
LINE
  8
_0-0_0
  6
CONTINUOUS
 62
    7
 10
43.736509347999998
 20
252.69219199630001
 11
43.646681830200009
 21
252.6777445731
  0
LINE
  8
_0-0_0
  6
CONTINUOUS
 62
    7
 10
43.646681830200009
 20
252.6777445731
 11
43.544400676999999
 21
252.66042238750001
  0
LINE
  8
_0-0_0
  6
CONTINUOUS
 62
    7
 10
43.544400676999999
 20
252.66042238750001
 11
43.442835532900006
 21
252.64233020720002
  0
LINE
  8
_0-0_0
  6
CONTINUOUS
 62
    7
 10
43.442835532900006
 20
252.64233020720002
 11
43.300652029899993
 21
252.61552858780001
  0
LINE
  8
_0-0_0
  6
CONTINUOUS
 62
    7
 10
43.300652029899993
 20
252.61552858780001
 11
43.161899698399992
 21
252.58768239080001
  0
LINE
  8
_0-0_0
  6
CONTINUOUS
 62
    7
 10
43.161899698399992
 20
252.58768239080001
 11
43.029486588299989
 21
252.55942458410001
  0
LINE
  8
_0-0_0
  6
CONTINUOUS
 62
    7
 10
43.029486588299989
 20
252.55942458410001
 11
42.913216903899979
 21
252.53318306990002
  0
LINE
  8
_0-0_0
  6
CONTINUOUS
 62
    7
 10
42.913216903899979
 20
252.53318306990002
 11
42.813799835099985
 21
252.50972980600002
  0
LINE
  8
_0-0_0
  6
CONTINUOUS
 62
    7
 10
42.813799835099985
 20
252.50972980600002
 11
42.700100787599979
 21
252.48175220850001
  0
LINE
  8
_0-0_0
  6
CONTINUOUS
 62
    7
 10
42.700100787599979
 20
252.48175220850001
 11
42.576619022800003
 21
252.4499174993
  0
LINE
  8
_0-0_0
  6
CONTINUOUS
 62
    7
 10
42.576619022800003
 20
252.4499174993
 11
42.440936779999987
 21
252.41317194320001
  0
LINE
  8
_0-0_0
  6
CONTINUOUS
 62
    7
 10
42.440936779999987
 20
252.41317194320001
 11
42.286080775100004
 21
252.36895180800002
  0
LINE
  8
_0-0_0
  6
CONTINUOUS
 62
    7
 10
42.286080775100004
 20
252.36895180800002
 11
42.111823401599992
 21
252.3162243095
  0
LINE
  8
_0-0_0
  6
CONTINUOUS
 62
    7
 10
42.111823401599992
 20
252.3162243095
 11
41.918485021700008
 21
252.2536130899
  0
LINE
  8
_0-0_0
  6
CONTINUOUS
 62
    7
 10
41.918485021700008
 20
252.2536130899
 11
41.706655506700002
 21
252.17984853120001
  0
LINE
  8
_0-0_0
  6
CONTINUOUS
 62
    7
 10
41.706655506700002
 20
252.17984853120001
 11
41.550252520599997
 21
252.12186973120001
  0
LINE
  8
_0-0_0
  6
CONTINUOUS
 62
    7
 10
41.550252520599997
 20
252.12186973120001
 11
41.415979965199995
 21
252.06976008550001
  0
LINE
  8
_0-0_0
  6
CONTINUOUS
 62
    7
 10
41.415979965199995
 20
252.06976008550001
 11
41.303554266300011
 21
252.02456212450002
  0
LINE
  8
_0-0_0
  6
CONTINUOUS
 62
    7
 10
41.303554266300011
 20
252.02456212450002
 11
41.21273200029998
 21
251.98714001870002
  0
LINE
  8
_0-0_0
  6
CONTINUOUS
 62
    7
 10
41.21273200029998
 20
251.98714001870002
 11
41.173711534000006
 21
251.97087619180002
  0
LINE
  8
_0-0_0
  6
CONTINUOUS
 62
    7
 10
41.173711534000006
 20
251.97087619180002
 11
41.140539775799994
 21
251.95701100710002
  0
LINE
  8
_0-0_0
  6
CONTINUOUS
 62
    7
 10
41.140539775799994
 20
251.95701100710002
 11
41.104754536299993
 21
251.94225667270001
  0
LINE
  8
_0-0_0
  6
CONTINUOUS
 62
    7
 10
41.104754536299993
 20
251.94225667270001
 11
41.049327859100003
 21
251.91989827520001
  0
LINE
  8
_0-0_0
  6
CONTINUOUS
 62
    7
 10
41.049327859100003
 20
251.91989827520001
 11
40.973832339099999
 21
251.889944485
  0
LINE
  8
_0-0_0
  6
CONTINUOUS
 62
    7
 10
40.973832339099999
 20
251.889944485
 11
40.934094711599982
 21
251.8737177166
  0
LINE
  8
_0-0_0
  6
CONTINUOUS
 62
    7
 10
42.053486622299999
 20
250.51170782540001
 11
42.097835647599993
 21
250.51007831050001
  0
LINE
  8
_0-0_0
  6
CONTINUOUS
 62
    7
 10
42.097835647599993
 20
250.51007831050001
 11
42.132134823499996
 21
250.50893142480001
  0
LINE
  8
_0-0_0
  6
CONTINUOUS
 62
    7
 10
42.132134823499996
 20
250.50893142480001
 11
42.156327922499997
 21
250.50836360620002
  0
LINE
  8
_0-0_0
  6
CONTINUOUS
 62
    7
 10
42.156327922499997
 20
250.50836360620002
 11
42.162786155399999
 21
250.50830630350001
  0
LINE
  8
_0-0_0
  6
CONTINUOUS
 62
    7
 10
42.162786155399999
 20
250.50830630350001
 11
42.167816032699989
 21
250.50833355510002
  0
LINE
  8
_0-0_0
  6
CONTINUOUS
 62
    7
 10
42.167816032699989
 20
250.50833355510002
 11
42.169795005999987
 21
250.5083785262
  0
LINE
  8
_0-0_0
  6
CONTINUOUS
 62
    7
 10
42.169795005999987
 20
250.5083785262
 11
42.17141654149998
 21
250.50844412480001
  0
LINE
  8
_0-0_0
  6
CONTINUOUS
 62
    7
 10
42.17141654149998
 20
250.50844412480001
 11
42.172680574400005
 21
250.50853010380001
  0
LINE
  8
_0-0_0
  6
CONTINUOUS
 62
    7
 10
42.172680574400005
 20
250.50853010380001
 11
42.173587064299994
 21
250.50863618150001
  0
LINE
  8
_0-0_0
  6
CONTINUOUS
 62
    7
 10
42.173587064299994
 20
250.50863618150001
 11
42.17432737339999
 21
250.5089073259
  0
LINE
  8
_0-0_0
  6
CONTINUOUS
 62
    7
 10
42.17432737339999
 20
250.5089073259
 11
42.174315258500002
 21
250.5089134248
  0
LINE
  8
_0-0_0
  6
CONTINUOUS
 62
    7
 10
43.174130962600003
 20
250.58274467060002
 11
43.197244402600006
 21
250.58099712430001
  0
LINE
  8
_0-0_0
  6
CONTINUOUS
 62
    7
 10
43.197244402600006
 20
250.58099712430001
 11
43.2272217302
 21
250.57186856730002
  0
LINE
  8
_0-0_0
  6
CONTINUOUS
 62
    7
 10
43.2272217302
 20
250.57186856730002
 11
43.257241389099988
 21
250.56100416240002
  0
LINE
  8
_0-0_0
  6
CONTINUOUS
 62
    7
 10
43.257241389099988
 20
250.56100416240002
 11
43.2879840473
 21
250.55135226270002
  0
LINE
  8
_0-0_0
  6
CONTINUOUS
 62
    7
 10
43.2879840473
 20
250.55135226270002
 11
43.319840874799979
 21
250.54425880890003
  0
LINE
  8
_0-0_0
  6
CONTINUOUS
 62
    7
 10
43.319840874799979
 20
250.54425880890003
 11
43.352998443399997
 21
250.5399969792
  0
LINE
  8
_0-0_0
  6
CONTINUOUS
 62
    7
 10
43.352998443399997
 20
250.5399969792
 11
43.387508749000006
 21
250.53819195610001
  0
LINE
  8
_0-0_0
  6
CONTINUOUS
 62
    7
 10
43.387508749000006
 20
250.53819195610001
 11
43.418794846200001
 21
250.5380917228
  0
LINE
  8
_0-0_0
  6
CONTINUOUS
 62
    7
 10
43.418794846200001
 20
250.5380917228
 11
43.451053755299995
 21
250.53884835210002
  0
LINE
  8
_0-0_0
  6
CONTINUOUS
 62
    7
 10
43.451053755299995
 20
250.53884835210002
 11
43.467532501699992
 21
250.53940810290001
  0
LINE
  8
_0-0_0
  6
CONTINUOUS
 62
    7
 10
43.467532501699992
 20
250.53940810290001
 11
43.484235917500001
 21
250.54002891340002
  0
LINE
  8
_0-0_0
  6
CONTINUOUS
 62
    7
 10
43.484235917500001
 20
250.54002891340002
 11
43.501158281399995
 21
250.5406777707
  0
LINE
  8
_0-0_0
  6
CONTINUOUS
 62
    7
 10
43.501158281399995
 20
250.5406777707
 11
43.530062535500008
 21
250.54177451530001
  0
LINE
  8
_0-0_0
  6
CONTINUOUS
 62
    7
 10
43.530062535500008
 20
250.54177451530001
 11
43.559423017099988
 21
250.54284483730001
  0
LINE
  8
_0-0_0
  6
CONTINUOUS
 62
    7
 10
43.559423017099988
 20
250.54284483730001
 11
43.589177307099988
 21
250.5438819167
  0
LINE
  8
_0-0_0
  6
CONTINUOUS
 62
    7
 10
43.589177307099988
 20
250.5438819167
 11
43.660871439499999
 21
250.54618709870002
  0
LINE
  8
_0-0_0
  6
CONTINUOUS
 62
    7
 10
43.660871439499999
 20
250.54618709870002
 11
43.710384712399986
 21
250.54762232830001
  0
LINE
  8
_0-0_0
  6
CONTINUOUS
 62
    7
 10
43.710384712399986
 20
250.54762232830001
 11
43.765140698399989
 21
250.54906410410001
  0
LINE
  8
_0-0_0
  6
CONTINUOUS
 62
    7
 10
43.765140698399989
 20
250.54906410410001
 11
43.838051326200002
 21
250.55075301640002
  0
LINE
  8
_0-0_0
  6
CONTINUOUS
 62
    7
 10
43.838051326200002
 20
250.55075301640002
 11
43.929990499599995
 21
250.552514653
  0
LINE
  8
_0-0_0
  6
CONTINUOUS
 62
    7
 10
43.929990499599995
 20
250.552514653
 11
44.040937137399993
 21
250.55410584100002
  0
LINE
  8
_0-0_0
  6
CONTINUOUS
 62
    7
 10
44.040937137399993
 20
250.55410584100002
 11
44.170864968099977
 21
250.55524337560001
  0
LINE
  8
_0-0_0
  6
CONTINUOUS
 62
    7
 10
44.170864968099977
 20
250.55524337560001
 11
44.319741661699993
 21
250.55560889530003
  0
LINE
  8
_0-0_0
  6
CONTINUOUS
 62
    7
 10
44.319741661699993
 20
250.55560889530003
 11
44.487527947099977
 21
250.55485465660001
  0
LINE
  8
_0-0_0
  6
CONTINUOUS
 62
    7
 10
44.487527947099977
 20
250.55485465660001
 11
44.674176781099987
 21
250.55261034690002
  0
LINE
  8
_0-0_0
  6
CONTINUOUS
 62
    7
 10
44.674176781099987
 20
250.55261034690002
 11
44.879632633099988
 21
250.54849093570002
  0
LINE
  8
_0-0_0
  6
CONTINUOUS
 62
    7
 10
44.879632633099988
 20
250.54849093570002
 11
45.103830960199986
 21
250.54210560600001
  0
LINE
  8
_0-0_0
  6
CONTINUOUS
 62
    7
 10
45.103830960199986
 20
250.54210560600001
 11
45.321001491199979
 21
250.5340368283
  0
ARC
  8
_0-0_0
  6
CONTINUOUS
 62
    7
 10
40.97812839529999
 20
251.7802186143
 40
0.1044112913011816
 50
113.7749215267
 51
178.61933038399999
  0
ARC
  8
_0-0_0
  6
CONTINUOUS
 62
    7
 10
46.484827143399997
 20
320.20805801620003
 40
70.995021104010576
 50
268.63115511580003
 51
269.06074976920002
  0
LINE
  8
_0-0_0
  6
CONTINUOUS
 62
    7
 10
40.978257896999992
 20
251.47316921950002
 11
40.978110201199996
 21
251.4740016977
  0
LINE
  8
_0-0_0
  6
CONTINUOUS
 62
    7
 10
40.978110201199996
 20
251.4740016977
 11
40.973443742299992
 21
251.49393888630001
  0
LINE
  8
_0-0_0
  6
CONTINUOUS
 62
    7
 10
40.973443742299992
 20
251.49393888630001
 11
40.96078082119999
 21
251.54048025450001
  0
LINE
  8
_0-0_0
  6
CONTINUOUS
 62
    7
 10
40.96078082119999
 20
251.54048025450001
 11
40.947105445799991
 21
251.58623152130002
  0
LINE
  8
_0-0_0
  6
CONTINUOUS
 62
    7
 10
40.947105445799991
 20
251.58623152130002
 11
40.9349720015
 21
251.62467169020002
  0
LINE
  8
_0-0_0
  6
CONTINUOUS
 62
    7
 10
40.9349720015
 20
251.62467169020002
 11
40.914688930000011
 21
251.6853831407
  0
LINE
  8
_0-0_0
  6
CONTINUOUS
 62
    7
 10
40.914688930000011
 20
251.6853831407
 11
40.90428233130001
 21
251.7146441564
  0
LINE
  8
_0-0_0
  6
CONTINUOUS
 62
    7
 10
40.90428233130001
 20
251.7146441564
 11
40.894178675799992
 21
251.7413222939
  0
LINE
  8
_0-0_0
  6
CONTINUOUS
 62
    7
 10
40.894178675799992
 20
251.7413222939
 11
40.874328692900008
 21
251.78209275270001
  0
LINE
  8
_0-0_0
  6
CONTINUOUS
 62
    7
 10
40.874328692900008
 20
251.78209275270001
 11
40.859876066299989
 21
251.79804627830001
  0
LINE
  8
_0-0_0
  6
CONTINUOUS
 62
    7
 10
40.859876066299989
 20
251.79804627830001
 11
40.850453353799992
 21
251.8046009192
  0
LINE
  8
_0-0_0
  6
CONTINUOUS
 62
    7
 10
40.850453353799992
 20
251.8046009192
 11
40.838592126799995
 21
251.8100367836
  0
LINE
  8
_0-0_0
  6
CONTINUOUS
 62
    7
 10
40.838592126799995
 20
251.8100367836
 11
40.824985659199996
 21
251.813301349
  0
LINE
  8
_0-0_0
  6
CONTINUOUS
 62
    7
 10
40.824985659199996
 20
251.813301349
 11
40.811513783199985
 21
251.8138332231
  0
LINE
  8
_0-0_0
  6
CONTINUOUS
 62
    7
 10
40.811513783199985
 20
251.8138332231
 11
40.785641443399982
 21
251.80730336670001
  0
LINE
  8
_0-0_0
  6
CONTINUOUS
 62
    7
 10
40.785641443399982
 20
251.80730336670001
 11
40.778775841299989
 21
251.80361793330002
  0
LINE
  8
_0-0_0
  6
CONTINUOUS
 62
    7
 10
40.778775841299989
 20
251.80361793330002
 11
40.771513978000002
 21
251.79851408660002
  0
LINE
  8
_0-0_0
  6
CONTINUOUS
 62
    7
 10
40.771513978000002
 20
251.79851408660002
 11
40.757198367599983
 21
251.7824711977
  0
LINE
  8
_0-0_0
  6
CONTINUOUS
 62
    7
 10
40.757198367599983
 20
251.7824711977
 11
40.747069811599999
 21
251.7565649384
  0
LINE
  8
_0-0_0
  6
CONTINUOUS
 62
    7
 10
40.747069811599999
 20
251.7565649384
 11
40.74686155789999
 21
251.73134500110001
  0
ARC
  8
_0-0_0
  6
CONTINUOUS
 62
    7
 10
40.459834762599996
 20
251.37015542340001
 40
0.3887069657684221
 50
10.674030786199999
 51
17.6947109766
  0
LINE
  8
_0-0_0
  6
CONTINUOUS
 62
    7
 10
40.841866012400004
 20
251.44171775140001
 11
40.9519343085
 21
250.5092660375
  0
ARC
  8
_0-0_0
  6
CONTINUOUS
 62
    7
 10
41.022236819799986
 20
250.51429367720002
 40
0.0696791513048645
 50
184.66891991500003
 51
345.66841419090002
  0
ARC
  8
_0-0_0
  6
CONTINUOUS
 62
    7
 10
40.770267914199991
 20
240.97158524240001
 40
0.2043049963146516
 50
177.06018957430001
 51
264.38892392000002
  0
ARC
  8
_0-0_0
  6
CONTINUOUS
 62
    7
 10
49.853086488799988
 20
240.9880894234
 40
0.2231891459290565
 50
279.80802679660002
 51
358.7089251676
  0
LINE
  8
_0-0_0
  6
CONTINUOUS
 62
    7
 10
50.078391112299983
 20
240.95940826240002
 11
50.078387229100002
 21
240.96596881250002
  0
LINE
  8
_0-0_0
  6
CONTINUOUS
 62
    7
 10
40.563753036899982
 20
240.96596824220001
 11
40.563749153700002
 21
240.9594091797
  0
ARC
  8
_0-0_0
  6
CONTINUOUS
 62
    7
 10
49.8625037722
 20
240.97626002480001
 40
0.2152030539607879
 50
294.90367037480001
 51
358.16203993890002
  0
LINE
  8
_0-0_0
  6
CONTINUOUS
 62
    7
 10
40.564134688400003
 20
240.97254820560002
 11
40.5655467988
 21
240.9601401397
  0
ARC
  8
_0-0_0
  6
CONTINUOUS
 62
    7
 10
45.320739243800006
 20
294.74858150840004
 40
54.180115142633717
 50
265.17065702560001
 51
274.83005811110002
  0
ARC
  8
_0-0_0
  6
CONTINUOUS
 62
    7
 10
49.632322433199988
 20
249.17229915050001
 40
0.1616232911981178
 50
56.622794708799994
 51
94.394258775099985
  0
LINE
  8
_0-0_0
  6
CONTINUOUS
 62
    7
 10
49.612781353700001
 20
249.333640965
 11
48.123790993200004
 21
249.3334750839
  0
LINE
  8
_0-0_0
  6
CONTINUOUS
 62
    7
 10
42.518043920099984
 20
249.33334543140001
 11
41.029315929799992
 21
249.33363547510001
  0
ARC
  8
_0-0_0
  6
CONTINUOUS
 62
    7
 10
41.013620080599992
 20
249.16191533520001
 40
0.1724222888790348
 50
87.166767351299981
 51
122.52963288029999
  0
ARC
  8
_0-0_0
  6
CONTINUOUS
 62
    7
 10
50.401688205499994
 20
249.94789108420002
 40
0.0200000052060181
 50
1.4092011347
 51
76.836395081500001
  0
ARC
  8
_0-0_0
  6
CONTINUOUS
 62
    7
 10
49.699189363299979
 20
249.91294069260002
 40
0.0182574676709576
 50
105.63609742390001
 51
188.56964630639999
  0
LINE
  8
_0-0_0
  6
CONTINUOUS
 62
    7
 10
49.680791961599994
 20
249.91016013630002
 11
49.833322945799978
 21
247.6365807951
  0
LINE
  8
_0-0_0
  6
CONTINUOUS
 62
    7
 10
49.833322945799978
 20
247.6365807951
 11
50.003725991899984
 21
244.94130316870002
  0
LINE
  8
_0-0_0
  6
CONTINUOUS
 62
    7
 10
50.612692027599991
 20
244.97275545410002
 11
50.514318366999987
 21
247.40992322280002
  0
LINE
  8
_0-0_0
  6
CONTINUOUS
 62
    7
 10
50.514318366999987
 20
247.40992322280002
 11
50.421754184399987
 21
249.9484467245
  0
ARC
  8
_0-0_0
  6
CONTINUOUS
 62
    7
 10
50.593953831799979
 20
244.97087241990002
 40
0.0187239239857164
 50
285.38101864229998
 51
6.0455336367000143
  0
ARC
  8
_0-0_0
  6
CONTINUOUS
 62
    7
 10
50.023070598400011
 20
244.94153707110002
 40
0.0189598361844086
 50
180.84751074260001
 51
254.9399847789
  0
ARC
  8
_0-0_0
  6
CONTINUOUS
 62
    7
 10
40.941369441500001
 20
249.9117038686
 40
0.0199625637633695
 50
355.57943151680001
 51
70.752813471299987
  0
ARC
  8
_0-0_0
  6
CONTINUOUS
 62
    7
 10
40.239024962799988
 20
249.94929740630002
 40
0.0182919202283352
 50
99.822246330699997
 51
182.71292122799997
  0
LINE
  8
_0-0_0
  6
CONTINUOUS
 62
    7
 10
40.638414275199978
 20
244.94130316870002
 11
40.808817321300012
 21
247.6365807951
  0
LINE
  8
_0-0_0
  6
CONTINUOUS
 62
    7
 10
40.808817321300012
 20
247.6365807951
 11
40.961348304599994
 21
249.91016012200001
  0
LINE
  8
_0-0_0
  6
CONTINUOUS
 62
    7
 10
40.220386084599994
 20
249.94844677630002
 11
40.127821900100002
 21
247.40992322280002
  0
LINE
  8
_0-0_0
  6
CONTINUOUS
 62
    7
 10
40.127821900100002
 20
247.40992322280002
 11
40.029448239599986
 21
244.97275545410002
  0
ARC
  8
_0-0_0
  6
CONTINUOUS
 62
    7
 10
40.618872910099981
 20
244.94184435260001
 40
0.019280893583819
 50
285.25217514539997
 51
358.05240995669999
  0
ARC
  8
_0-0_0
  6
CONTINUOUS
 62
    7
 10
40.049085691100004
 20
244.9711740143
 40
0.0193019651793528
 50
175.32503985310001
 51
252.34284512820003
  0
LINE
  8
_0-0_0
  6
CONTINUOUS
 62
    7
 10
50.623415802799997
 20
244.46462835780002
 11
50.625797696900008
 21
244.43020421630001
  0
LINE
  8
_0-0_0
  6
CONTINUOUS
 62
    7
 10
50.625797696900008
 20
244.43020421630001
 11
50.622228031299983
 21
244.38805730750002
  0
LINE
  8
_0-0_0
  6
CONTINUOUS
 62
    7
 10
50.622228031299983
 20
244.38805730750002
 11
50.61160693170001
 21
244.34689509130001
  0
LINE
  8
_0-0_0
  6
CONTINUOUS
 62
    7
 10
50.61160693170001
 20
244.34689509130001
 11
50.594195924699989
 21
244.30773111820002
  0
LINE
  8
_0-0_0
  6
CONTINUOUS
 62
    7
 10
50.594195924699989
 20
244.30773111820002
 11
50.570423727099978
 21
244.271529735
  0
LINE
  8
_0-0_0
  6
CONTINUOUS
 62
    7
 10
50.570423727099978
 20
244.271529735
 11
50.54087568929998
 21
244.2391823401
  0
LINE
  8
_0-0_0
  6
CONTINUOUS
 62
    7
 10
50.54087568929998
 20
244.2391823401
 11
50.506279382000002
 21
244.21148543370001
  0
LINE
  8
_0-0_0
  6
CONTINUOUS
 62
    7
 10
50.506279382000002
 20
244.21148543370001
 11
50.467486681299988
 21
244.18912100540001
  0
LINE
  8
_0-0_0
  6
CONTINUOUS
 62
    7
 10
50.467486681299988
 20
244.18912100540001
 11
50.425452791999987
 21
244.17263974170001
  0
LINE
  8
_0-0_0
  6
CONTINUOUS
 62
    7
 10
50.425452791999987
 20
244.17263974170001
 11
50.381212728099996
 21
244.16244746610002
  0
LINE
  8
_0-0_0
  6
CONTINUOUS
 62
    7
 10
50.381212728099996
 20
244.16244746610002
 11
50.335855826799985
 21
244.15879514630001
  0
LINE
  8
_0-0_0
  6
CONTINUOUS
 62
    7
 10
50.335855826799985
 20
244.15879514630001
 11
50.290498925399987
 21
244.16177271430001
  0
LINE
  8
_0-0_0
  6
CONTINUOUS
 62
    7
 10
50.290498925399987
 20
244.16177271430001
 11
50.246258861499996
 21
244.17130685270001
  0
LINE
  8
_0-0_0
  6
CONTINUOUS
 62
    7
 10
50.246258861499996
 20
244.17130685270001
 11
50.204224972199995
 21
244.18716279930001
  0
LINE
  8
_0-0_0
  6
CONTINUOUS
 62
    7
 10
50.204224972199995
 20
244.18716279930001
 11
50.165432271499981
 21
244.208950128
  0
LINE
  8
_0-0_0
  6
CONTINUOUS
 62
    7
 10
50.165432271499981
 20
244.208950128
 11
50.130835964200003
 21
244.23613236260002
  0
LINE
  8
_0-0_0
  6
CONTINUOUS
 62
    7
 10
50.130835964200003
 20
244.23613236260002
 11
50.101287926400005
 21
244.26804018620001
  0
LINE
  8
_0-0_0
  6
CONTINUOUS
 62
    7
 10
50.101287926400005
 20
244.26804018620001
 11
50.077515728799995
 21
244.30388792230002
  0
LINE
  8
_0-0_0
  6
CONTINUOUS
 62
    7
 10
50.077515728799995
 20
244.30388792230002
 11
50.060104721800002
 21
244.3427928806
  0
LINE
  8
_0-0_0
  6
CONTINUOUS
 62
    7
 10
50.060104721800002
 20
244.3427928806
 11
50.0494836222
 21
244.38379709200001
  0
LINE
  8
_0-0_0
  6
CONTINUOUS
 62
    7
 10
50.0494836222
 20
244.38379709200001
 11
50.045913956600003
 21
244.42589089670003
  0
LINE
  8
_0-0_0
  6
CONTINUOUS
 62
    7
 10
50.045913956600003
 20
244.42589089670003
 11
50.045999450300002
 21
244.43242967030002
  0
LINE
  8
_0-0_0
  6
CONTINUOUS
 62
    7
 10
50.062101853599984
 20
241.63546291360001
 11
50.065683700600005
 21
241.61606974110001
  0
LINE
  8
_0-0_0
  6
CONTINUOUS
 62
    7
 10
50.065683700600005
 20
241.61606974110001
 11
50.076389235899995
 21
241.59643118530002
  0
LINE
  8
_0-0_0
  6
CONTINUOUS
 62
    7
 10
50.076389235899995
 20
241.59643118530002
 11
50.094028150699984
 21
241.57779747230001
  0
LINE
  8
_0-0_0
  6
CONTINUOUS
 62
    7
 10
50.094028150699984
 20
241.57779747230001
 11
50.118298638099986
 21
241.56048743030001
  0
LINE
  8
_0-0_0
  6
CONTINUOUS
 62
    7
 10
50.118298638099986
 20
241.56048743030001
 11
50.1487854234
 21
241.54479723880002
  0
LINE
  8
_0-0_0
  6
CONTINUOUS
 62
    7
 10
50.1487854234
 20
241.54479723880002
 11
50.184966869299984
 21
241.53099536140002
  0
LINE
  8
_0-0_0
  6
CONTINUOUS
 62
    7
 10
50.184966869299984
 20
241.53099536140002
 11
50.226223901200001
 21
241.51931795200002
  0
LINE
  8
_0-0_0
  6
CONTINUOUS
 62
    7
 10
50.226223901200001
 20
241.51931795200002
 11
50.27185059979999
 21
241.50996481430002
  0
LINE
  8
_0-0_0
  6
CONTINUOUS
 62
    7
 10
50.27185059979999
 20
241.50996481430002
 11
50.321066279599989
 21
241.50309598310002
  0
LINE
  8
_0-0_0
  6
CONTINUOUS
 62
    7
 10
50.321066279599989
 20
241.50309598310002
 11
50.373028846799997
 21
241.49882898610002
  0
LINE
  8
_0-0_0
  6
CONTINUOUS
 62
    7
 10
50.373028846799997
 20
241.49882898610002
 11
50.426849207499998
 21
241.49723683260001
  0
LINE
  8
_0-0_0
  6
CONTINUOUS
 62
    7
 10
50.426849207499998
 20
241.49723683260001
 11
50.481606480199986
 21
241.49834676500001
  0
LINE
  8
_0-0_0
  6
CONTINUOUS
 62
    7
 10
50.716466897000004
 20
240.986950785
 11
50.749485293600003
 21
241.00530863060001
  0
LINE
  8
_0-0_0
  6
CONTINUOUS
 62
    7
 10
50.749485293600003
 20
241.00530863060001
 11
50.802405387100009
 21
241.0437077011
  0
LINE
  8
_0-0_0
  6
CONTINUOUS
 62
    7
 10
50.802405387100009
 20
241.0437077011
 11
50.848055170199984
 21
241.09007603200001
  0
LINE
  8
_0-0_0
  6
CONTINUOUS
 62
    7
 10
50.848055170199984
 20
241.09007603200001
 11
50.882227314799991
 21
241.1397812125
  0
LINE
  8
_0-0_0
  6
CONTINUOUS
 62
    7
 10
50.882227314799991
 20
241.1397812125
 11
50.906597278499987
 21
241.1947503124
  0
LINE
  8
_0-0_0
  6
CONTINUOUS
 62
    7
 10
50.906597278499987
 20
241.1947503124
 11
50.919246506099995
 21
241.25111015260001
  0
LINE
  8
_0-0_0
  6
CONTINUOUS
 62
    7
 10
50.919246506099995
 20
241.25111015260001
 11
50.919928718099982
 21
241.29764668180002
  0
LINE
  8
_0-0_0
  6
CONTINUOUS
 62
    7
 10
50.709605522900006
 20
240.92736368500002
 11
50.716466897000004
 21
240.986950785
  0
LINE
  8
_0-0_0
  6
CONTINUOUS
 62
    7
 10
50.680216273100001
 20
240.9146270235
 11
50.709605522900006
 21
240.92736368500002
  0
LINE
  8
_0-0_0
  6
CONTINUOUS
 62
    7
 10
50.654418681399989
 20
241.0234615809
 11
50.673695551500003
 21
240.94013649770002
  0
LINE
  8
_0-0_0
  6
CONTINUOUS
 62
    7
 10
50.673695551500003
 20
240.94013649770002
 11
50.680216273100001
 21
240.9146270235
  0
LINE
  8
_0-0_0
  6
CONTINUOUS
 62
    7
 10
50.624848958099989
 20
241.01426267580001
 11
50.654418681399989
 21
241.0234615809
  0
LINE
  8
_0-0_0
  6
CONTINUOUS
 62
    7
 10
50.611225708900008
 20
240.89313803140001
 11
50.62133623439999
 21
240.97927269250002
  0
LINE
  8
_0-0_0
  6
CONTINUOUS
 62
    7
 10
50.62133623439999
 20
240.97927269250002
 11
50.624848958099989
 21
241.01426267580001
  0
LINE
  8
_0-0_0
  6
CONTINUOUS
 62
    7
 10
50.581493439300004
 20
240.88712546390002
 11
50.604125419699983
 21
240.89153252350002
  0
LINE
  8
_0-0_0
  6
CONTINUOUS
 62
    7
 10
50.604125419699983
 20
240.89153252350002
 11
50.611225708900008
 21
240.89313803140001
  0
LINE
  8
_0-0_0
  6
CONTINUOUS
 62
    7
 10
50.555476422600009
 20
241.00026133130001
 11
50.575342722199991
 21
240.91200444630002
  0
LINE
  8
_0-0_0
  6
CONTINUOUS
 62
    7
 10
50.575342722199991
 20
240.91200444630002
 11
50.581493439300004
 21
240.88712546390002
  0
LINE
  8
_0-0_0
  6
CONTINUOUS
 62
    7
 10
50.5255896818
 20
240.99727680680002
 11
50.555476422600009
 21
241.00026133130001
  0
LINE
  8
_0-0_0
  6
CONTINUOUS
 62
    7
 10
50.511765564600012
 20
240.8800897081
 11
50.522472371999982
 21
240.96750447730003
  0
LINE
  8
_0-0_0
  6
CONTINUOUS
 62
    7
 10
50.522472371999982
 20
240.96750447730003
 11
50.5255896818
 21
240.99727680680002
  0
LINE
  8
_0-0_0
  6
CONTINUOUS
 62
    7
 10
50.481730199099985
 20
240.8800186194
 11
50.511765564600012
 21
240.8800897081
  0
LINE
  8
_0-0_0
  6
CONTINUOUS
 62
    7
 10
50.45550953290001
 20
240.9971465559
 11
50.475667268400002
 21
240.90528448640001
  0
LINE
  8
_0-0_0
  6
CONTINUOUS
 62
    7
 10
50.475667268400002
 20
240.90528448640001
 11
50.481730199099985
 21
240.8800186194
  0
LINE
  8
_0-0_0
  6
CONTINUOUS
 62
    7
 10
50.425321828600005
 20
241.00006171070001
 11
50.45550953290001
 21
240.9971465559
  0
LINE
  8
_0-0_0
  6
CONTINUOUS
 62
    7
 10
50.411294024900002
 20
240.88686740440002
 11
50.421450208199985
 21
240.96503129390001
  0
LINE
  8
_0-0_0
  6
CONTINUOUS
 62
    7
 10
50.421450208199985
 20
240.96503129390001
 11
50.425321828600005
 21
241.00006171070001
  0
LINE
  8
_0-0_0
  6
CONTINUOUS
 62
    7
 10
50.3809434538
 20
240.8929751796
 11
50.411294024900002
 21
240.88686740440002
  0
LINE
  8
_0-0_0
  6
CONTINUOUS
 62
    7
 10
50.354507931699999
 20
241.0143148585
 11
50.375700415899985
 21
240.91539332310001
  0
LINE
  8
_0-0_0
  6
CONTINUOUS
 62
    7
 10
50.375700415899985
 20
240.91539332310001
 11
50.3809434538
 21
240.8929751796
  0
LINE
  8
_0-0_0
  6
CONTINUOUS
 62
    7
 10
50.323976812399991
 20
241.02396185650002
 11
50.347644477800003
 21
241.01628704360002
  0
LINE
  8
_0-0_0
  6
CONTINUOUS
 62
    7
 10
50.347644477800003
 20
241.01628704360002
 11
50.354507931699999
 21
241.0143148585
  0
LINE
  8
_0-0_0
  6
CONTINUOUS
 62
    7
 10
50.31699562579999
 20
240.9663950362
 11
50.321564232100002
 21
241.00296104810002
  0
LINE
  8
_0-0_0
  6
CONTINUOUS
 62
    7
 10
50.321564232100002
 20
241.00296104810002
 11
50.323976812399991
 21
241.02396185650002
  0
LINE
  8
_0-0_0
  6
CONTINUOUS
 62
    7
 10
50.083287905399999
 20
241.25757022330001
 11
50.084445782999978
 21
241.22918443900002
  0
LINE
  8
_0-0_0
  6
CONTINUOUS
 62
    7
 10
50.084445782999978
 20
241.22918443900002
 11
50.099051004099977
 21
241.17193433860001
  0
LINE
  8
_0-0_0
  6
CONTINUOUS
 62
    7
 10
50.099051004099977
 20
241.17193433860001
 11
50.124284943799978
 21
241.11984764140001
  0
LINE
  8
_0-0_0
  6
CONTINUOUS
 62
    7
 10
50.124284943799978
 20
241.11984764140001
 11
50.160831236999996
 21
241.0707169197
  0
LINE
  8
_0-0_0
  6
CONTINUOUS
 62
    7
 10
50.160831236999996
 20
241.0707169197
 11
50.20642237749999
 21
241.02815579430001
  0
LINE
  8
_0-0_0
  6
CONTINUOUS
 62
    7
 10
50.20642237749999
 20
241.02815579430001
 11
50.262014351099992
 21
240.99163340390001
  0
LINE
  8
_0-0_0
  6
CONTINUOUS
 62
    7
 10
50.262014351099992
 20
240.99163340390001
 11
50.31699562579999
 21
240.9663950362
  0
ARC
  8
_0-0_0
  6
CONTINUOUS
 62
    7
 10
49.961499871699999
 20
251.59383213540002
 40
0.1554133377269847
 50
192.7464433566
 51
353.65337591870002
  0
LINE
  8
_0-0_0
  6
CONTINUOUS
 62
    7
 10
50.338438019600005
 20
250.81966433790001
 11
50.329806464599983
 21
250.87092762450001
  0
LINE
  8
_0-0_0
  6
CONTINUOUS
 62
    7
 10
50.329806464599983
 20
250.87092762450001
 11
50.319562551699988
 21
250.92209808800001
  0
LINE
  8
_0-0_0
  6
CONTINUOUS
 62
    7
 10
50.350677112900001
 20
250.76644000530001
 11
50.345728045499982
 21
250.7860551501
  0
LINE
  8
_0-0_0
  6
CONTINUOUS
 62
    7
 10
50.345728045499982
 20
250.7860551501
 11
50.338437978499996
 21
250.81966458870002
  0
LINE
  8
_0-0_0
  6
CONTINUOUS
 62
    7
 10
50.350677111300001
 20
250.76644003680002
 11
50.351062552099989
 21
250.7192296309
  0
LINE
  8
_0-0_0
  6
CONTINUOUS
 62
    7
 10
50.351062552099989
 20
250.7192296309
 11
50.3474367492
 21
250.67236574100002
  0
LINE
  8
_0-0_0
  6
CONTINUOUS
 62
    7
 10
50.3474367492
 20
250.67236574100002
 11
50.339842211800004
 21
250.62639780320001
  0
LINE
  8
_0-0_0
  6
CONTINUOUS
 62
    7
 10
50.339842211800004
 20
250.62639780320001
 11
50.328367979000006
 21
250.5818647497
  0
LINE
  8
_0-0_0
  6
CONTINUOUS
 62
    7
 10
50.328367979000006
 20
250.5818647497
 11
50.313148575599996
 21
250.53928868990002
  0
LINE
  8
_0-0_0
  6
CONTINUOUS
 62
    7
 10
50.313148575599996
 20
250.53928868990002
 11
50.294362435300002
 21
250.49916878900001
  0
LINE
  8
_0-0_0
  6
CONTINUOUS
 62
    7
 10
50.294362435300002
 20
250.49916878900001
 11
50.272229808299983
 21
250.46197541640001
  0
LINE
  8
_0-0_0
  6
CONTINUOUS
 62
    7
 10
50.272229808299983
 20
250.46197541640001
 11
50.247010179499995
 21
250.42814463030001
  0
LINE
  8
_0-0_0
  6
CONTINUOUS
 62
    7
 10
50.247010179499995
 20
250.42814463030001
 11
50.218999226099982
 21
250.3980730657
  0
LINE
  8
_0-0_0
  6
CONTINUOUS
 62
    7
 10
50.218999226099982
 20
250.3980730657
 11
50.18852535069999
 21
250.3721132844
  0
LINE
  8
_0-0_0
  6
CONTINUOUS
 62
    7
 10
50.18852535069999
 20
250.3721132844
 11
50.155945831899999
 21
250.35056964090001
  0
LINE
  8
_0-0_0
  6
CONTINUOUS
 62
    7
 10
50.155945831899999
 20
250.35056964090001
 11
50.121642634599993
 21
250.3336947148
  0
LINE
  8
_0-0_0
  6
CONTINUOUS
 62
    7
 10
50.121642634599993
 20
250.3336947148
 11
50.086017932499999
 21
250.32168634930002
  0
LINE
  8
_0-0_0
  6
CONTINUOUS
 62
    7
 10
50.086017932499999
 20
250.32168634930002
 11
50.049489392699996
 21
250.3146853314
  0
LINE
  8
_0-0_0
  6
CONTINUOUS
 62
    7
 10
50.049489392699996
 20
250.3146853314
 11
50.012485278899987
 21
250.3127737417
  0
LINE
  8
_0-0_0
  6
CONTINUOUS
 62
    7
 10
50.012485278899987
 20
250.3127737417
 11
49.975439430599977
 21
250.31597399180001
  0
LINE
  8
_0-0_0
  6
CONTINUOUS
 62
    7
 10
49.975439430599977
 20
250.31597399180001
 11
49.938786176399987
 21
250.3242485616
  0
LINE
  8
_0-0_0
  6
CONTINUOUS
 62
    7
 10
49.938786176399987
 20
250.3242485616
 11
49.902955242399997
 21
250.33750043950002
  0
LINE
  8
_0-0_0
  6
CONTINUOUS
 62
    7
 10
49.902955242399997
 20
250.33750043950002
 11
49.868366713400007
 21
250.3555742593
  0
LINE
  8
_0-0_0
  6
CONTINUOUS
 62
    7
 10
49.868366713400007
 20
250.3555742593
 11
49.835426108399986
 21
250.37825812200001
  0
LINE
  8
_0-0_0
  6
CONTINUOUS
 62
    7
 10
49.835426108399986
 20
250.37825812200001
 11
49.804519625799998
 21
250.40528607990001
  0
LINE
  8
_0-0_0
  6
CONTINUOUS
 62
    7
 10
49.804519625799998
 20
250.40528607990001
 11
49.776009615899994
 21
250.436341255
  0
LINE
  8
_0-0_0
  6
CONTINUOUS
 62
    7
 10
49.776009615899994
 20
250.436341255
 11
49.750230332499996
 21
250.47105955380002
  0
LINE
  8
_0-0_0
  6
CONTINUOUS
 62
    7
 10
49.750230332499996
 20
250.47105955380002
 11
49.727484014200002
 21
250.50903393580001
  0
LINE
  8
_0-0_0
  6
CONTINUOUS
 62
    7
 10
49.727484014200002
 20
250.50903393580001
 11
49.708037340700002
 21
250.54981918620001
  0
LINE
  8
_0-0_0
  6
CONTINUOUS
 62
    7
 10
49.708037340700002
 20
250.54981918620001
 11
49.697214065799983
 21
250.57778702260001
  0
LINE
  8
_0-0_0
  6
CONTINUOUS
 62
    7
 10
50.350362888700005
 20
250.7678409545
 11
50.350677112900001
 21
250.76644000530001
  0
LINE
  8
_0-0_0
  6
CONTINUOUS
 62
    7
 10
49.683247674099988
 20
250.48588767770002
 11
49.719519673500002
 21
249.9324695251
  0
LINE
  8
_0-0_0
  6
CONTINUOUS
 62
    7
 10
50.380985674499982
 20
249.96519166730002
 11
50.351217669199997
 21
250.7521496601
  0
LINE
  8
_0-0_0
  6
CONTINUOUS
 62
    7
 10
50.351252590199977
 20
250.7513187319
 11
50.350677114599989
 21
250.7664399743
  0
LINE
  8
_0-0_0
  6
CONTINUOUS
 62
    7
 10
50.126037252799989
 20
252.76999412860002
 11
50.090663619400004
 21
252.8268331628
  0
LINE
  8
_0-0_0
  6
CONTINUOUS
 62
    7
 10
50.090663619400004
 20
252.8268331628
 11
50.029748114299991
 21
252.87535954580002
  0
LINE
  8
_0-0_0
  6
CONTINUOUS
 62
    7
 10
50.029748114299991
 20
252.87535954580002
 11
49.956865035699991
 21
252.90043439800002
  0
LINE
  8
_0-0_0
  6
CONTINUOUS
 62
    7
 10
49.956865035699991
 20
252.90043439800002
 11
49.909399487799988
 21
252.90308653560001
  0
LINE
  8
_0-0_0
  6
CONTINUOUS
 62
    7
 10
49.909399487799988
 20
252.90308653560001
 11
49.835121100599991
 21
252.88664217580001
  0
LINE
  8
_0-0_0
  6
CONTINUOUS
 62
    7
 10
49.835121100599991
 20
252.88664217580001
 11
49.770505682600003
 21
252.846669367
  0
LINE
  8
_0-0_0
  6
CONTINUOUS
 62
    7
 10
49.770505682600003
 20
252.846669367
 11
49.722387945500003
 21
252.78745275900002
  0
LINE
  8
_0-0_0
  6
CONTINUOUS
 62
    7
 10
49.722387945500003
 20
252.78745275900002
 11
49.70887145719999
 21
252.7502056024
  0
LINE
  8
_0-0_0
  6
CONTINUOUS
 62
    7
 10
50.31699562579999
 20
240.9663950362
 11
50.321564232100002
 21
241.00296104810002
  0
LINE
  8
_0-0_0
  6
CONTINUOUS
 62
    7
 10
50.321564232100002
 20
241.00296104810002
 11
50.323976812399991
 21
241.02396185650002
  0
LINE
  8
_0-0_0
  6
CONTINUOUS
 62
    7
 10
50.323976812399991
 20
241.02396185650002
 11
50.347644477800003
 21
241.01628704360002
  0
LINE
  8
_0-0_0
  6
CONTINUOUS
 62
    7
 10
50.347644477800003
 20
241.01628704360002
 11
50.354507931699999
 21
241.0143148585
  0
LINE
  8
_0-0_0
  6
CONTINUOUS
 62
    7
 10
50.354507931699999
 20
241.0143148585
 11
50.375700415899985
 21
240.91539332310001
  0
LINE
  8
_0-0_0
  6
CONTINUOUS
 62
    7
 10
50.375700415899985
 20
240.91539332310001
 11
50.3809434538
 21
240.8929751796
  0
LINE
  8
_0-0_0
  6
CONTINUOUS
 62
    7
 10
50.3809434538
 20
240.8929751796
 11
50.411294024900002
 21
240.88686740440002
  0
LINE
  8
_0-0_0
  6
CONTINUOUS
 62
    7
 10
50.411294024900002
 20
240.88686740440002
 11
50.421450208199985
 21
240.96503129390001
  0
LINE
  8
_0-0_0
  6
CONTINUOUS
 62
    7
 10
50.421450208199985
 20
240.96503129390001
 11
50.425321828600005
 21
241.00006171070001
  0
LINE
  8
_0-0_0
  6
CONTINUOUS
 62
    7
 10
50.425321828600005
 20
241.00006171070001
 11
50.45550953290001
 21
240.9971465559
  0
LINE
  8
_0-0_0
  6
CONTINUOUS
 62
    7
 10
50.45550953290001
 20
240.9971465559
 11
50.475667268400002
 21
240.90528448640001
  0
LINE
  8
_0-0_0
  6
CONTINUOUS
 62
    7
 10
50.475667268400002
 20
240.90528448640001
 11
50.481730199099985
 21
240.8800186194
  0
LINE
  8
_0-0_0
  6
CONTINUOUS
 62
    7
 10
50.481730199099985
 20
240.8800186194
 11
50.511765564600012
 21
240.8800897081
  0
LINE
  8
_0-0_0
  6
CONTINUOUS
 62
    7
 10
50.511765564600012
 20
240.8800897081
 11
50.522472371999982
 21
240.96750447730003
  0
LINE
  8
_0-0_0
  6
CONTINUOUS
 62
    7
 10
50.522472371999982
 20
240.96750447730003
 11
50.5255896818
 21
240.99727680680002
  0
LINE
  8
_0-0_0
  6
CONTINUOUS
 62
    7
 10
50.5255896818
 20
240.99727680680002
 11
50.555476422600009
 21
241.00026133130001
  0
LINE
  8
_0-0_0
  6
CONTINUOUS
 62
    7
 10
50.555476422600009
 20
241.00026133130001
 11
50.575342722199991
 21
240.91200444630002
  0
LINE
  8
_0-0_0
  6
CONTINUOUS
 62
    7
 10
50.575342722199991
 20
240.91200444630002
 11
50.581493439300004
 21
240.88712546390002
  0
LINE
  8
_0-0_0
  6
CONTINUOUS
 62
    7
 10
50.581493439300004
 20
240.88712546390002
 11
50.604125419699983
 21
240.89153252350002
  0
LINE
  8
_0-0_0
  6
CONTINUOUS
 62
    7
 10
50.604125419699983
 20
240.89153252350002
 11
50.611225708900008
 21
240.89313803140001
  0
LINE
  8
_0-0_0
  6
CONTINUOUS
 62
    7
 10
50.611225708900008
 20
240.89313803140001
 11
50.62133623439999
 21
240.97927269250002
  0
LINE
  8
_0-0_0
  6
CONTINUOUS
 62
    7
 10
50.62133623439999
 20
240.97927269250002
 11
50.624848958099989
 21
241.01426267580001
  0
LINE
  8
_0-0_0
  6
CONTINUOUS
 62
    7
 10
50.624848958099989
 20
241.01426267580001
 11
50.654418681399989
 21
241.0234615809
  0
LINE
  8
_0-0_0
  6
CONTINUOUS
 62
    7
 10
50.654418681399989
 20
241.0234615809
 11
50.673695551500003
 21
240.94013649770002
  0
LINE
  8
_0-0_0
  6
CONTINUOUS
 62
    7
 10
50.673695551500003
 20
240.94013649770002
 11
50.680216273100001
 21
240.9146270235
  0
LINE
  8
_0-0_0
  6
CONTINUOUS
 62
    7
 10
50.680216273100001
 20
240.9146270235
 11
50.709605522900006
 21
240.92736368500002
  0
LINE
  8
_0-0_0
  6
CONTINUOUS
 62
    7
 10
50.709605522900006
 20
240.92736368500002
 11
50.716466897000004
 21
240.986950785
  0
LINE
  8
_0-0_0
  6
CONTINUOUS
 62
    7
 10
50.716466897000004
 20
240.986950785
 11
50.749485293600003
 21
241.00530863060001
  0
LINE
  8
_0-0_0
  6
CONTINUOUS
 62
    7
 10
50.749485293600003
 20
241.00530863060001
 11
50.802405387100009
 21
241.0437077011
  0
LINE
  8
_0-0_0
  6
CONTINUOUS
 62
    7
 10
50.802405387100009
 20
241.0437077011
 11
50.848055170199984
 21
241.09007603200001
  0
LINE
  8
_0-0_0
  6
CONTINUOUS
 62
    7
 10
50.848055170199984
 20
241.09007603200001
 11
50.882227314799991
 21
241.1397812125
  0
LINE
  8
_0-0_0
  6
CONTINUOUS
 62
    7
 10
50.882227314799991
 20
241.1397812125
 11
50.906597278499987
 21
241.1947503124
  0
LINE
  8
_0-0_0
  6
CONTINUOUS
 62
    7
 10
50.906597278499987
 20
241.1947503124
 11
50.919246506099995
 21
241.25111015260001
  0
LINE
  8
_0-0_0
  6
CONTINUOUS
 62
    7
 10
50.919246506099995
 20
241.25111015260001
 11
50.919938530999985
 21
241.2983160613
  0
LINE
  8
_0-0_0
  6
CONTINUOUS
 62
    7
 10
50.083239077499996
 20
241.258767256
 11
50.084445782999978
 21
241.22918443900002
  0
LINE
  8
_0-0_0
  6
CONTINUOUS
 62
    7
 10
50.084445782999978
 20
241.22918443900002
 11
50.099051004099977
 21
241.17193433860001
  0
LINE
  8
_0-0_0
  6
CONTINUOUS
 62
    7
 10
50.099051004099977
 20
241.17193433860001
 11
50.124284943799978
 21
241.11984764140001
  0
LINE
  8
_0-0_0
  6
CONTINUOUS
 62
    7
 10
50.124284943799978
 20
241.11984764140001
 11
50.160831236999996
 21
241.0707169197
  0
LINE
  8
_0-0_0
  6
CONTINUOUS
 62
    7
 10
50.160831236999996
 20
241.0707169197
 11
50.20642237749999
 21
241.02815579430001
  0
LINE
  8
_0-0_0
  6
CONTINUOUS
 62
    7
 10
50.20642237749999
 20
241.02815579430001
 11
50.262014351099992
 21
240.99163340390001
  0
LINE
  8
_0-0_0
  6
CONTINUOUS
 62
    7
 10
50.262014351099992
 20
240.99163340390001
 11
50.31699562579999
 21
240.9663950362
  0
LINE
  8
_0-0_0
  6
CONTINUOUS
 62
    7
 10
50.421568250500002
 20
240.4741725085
 11
50.460136685799995
 21
240.45235562120001
  0
LINE
  8
_0-0_0
  6
CONTINUOUS
 62
    7
 10
50.460136685799995
 20
240.45235562120001
 11
50.538597498099989
 21
240.43832243030002
  0
LINE
  8
_0-0_0
  6
CONTINUOUS
 62
    7
 10
50.538597498099989
 20
240.43832243030002
 11
50.588140520299987
 21
240.44314538290001
  0
LINE
  8
_0-0_0
  6
CONTINUOUS
 62
    7
 10
50.588140520299987
 20
240.44314538290001
 11
50.662374353600001
 21
240.47201839580001
  0
LINE
  8
_0-0_0
  6
CONTINUOUS
 62
    7
 10
50.662374353600001
 20
240.47201839580001
 11
50.685931093499988
 21
240.49219405970001
  0
LINE
  8
_0-0_0
  6
CONTINUOUS
 62
    7
 10
40.296117909200007
 20
244.15903633940002
 11
40.3546913184
 21
244.16216992100001
  0
LINE
  8
_0-0_0
  6
CONTINUOUS
 62
    7
 10
40.3546913184
 20
244.16216992100001
 11
40.409661236099993
 21
244.1756785247
  0
LINE
  8
_0-0_0
  6
CONTINUOUS
 62
    7
 10
40.409661236099993
 20
244.1756785247
 11
40.459817673000003
 21
244.19852367800002
  0
LINE
  8
_0-0_0
  6
CONTINUOUS
 62
    7
 10
40.459817673000003
 20
244.19852367800002
 11
40.503950639599992
 21
244.2296669083
  0
LINE
  8
_0-0_0
  6
CONTINUOUS
 62
    7
 10
40.503950639599992
 20
244.2296669083
 11
40.540850146699995
 21
244.26806974300001
  0
LINE
  8
_0-0_0
  6
CONTINUOUS
 62
    7
 10
40.540850146699995
 20
244.26806974300001
 11
40.569306204699984
 21
244.31269370950002
  0
LINE
  8
_0-0_0
  6
CONTINUOUS
 62
    7
 10
40.569306204699984
 20
244.31269370950002
 11
40.588108824199992
 21
244.36250033530001
  0
LINE
  8
_0-0_0
  6
CONTINUOUS
 62
    7
 10
40.588108824199992
 20
244.36250033530001
 11
40.59604801590001
 21
244.4164511477
  0
LINE
  8
_0-0_0
  6
CONTINUOUS
 62
    7
 10
40.59604801590001
 20
244.4164511477
 11
40.594919650099996
 21
244.4324282174
  0
LINE
  8
_0-0_0
  6
CONTINUOUS
 62
    7
 10
40.020175136899979
 20
244.46447658710002
 11
40.016520864799986
 21
244.43964396530001
  0
LINE
  8
_0-0_0
  6
CONTINUOUS
 62
    7
 10
40.016520864799986
 20
244.43964396530001
 11
40.020364393699992
 21
244.38522160560001
  0
LINE
  8
_0-0_0
  6
CONTINUOUS
 62
    7
 10
40.020364393699992
 20
244.38522160560001
 11
40.035351302199985
 21
244.33406271470002
  0
LINE
  8
_0-0_0
  6
CONTINUOUS
 62
    7
 10
40.035351302199985
 20
244.33406271470002
 11
40.060353629399998
 21
244.28729933060001
  0
LINE
  8
_0-0_0
  6
CONTINUOUS
 62
    7
 10
40.060353629399998
 20
244.28729933060001
 11
40.094243414099992
 21
244.2460634912
  0
LINE
  8
_0-0_0
  6
CONTINUOUS
 62
    7
 10
40.094243414099992
 20
244.2460634912
 11
40.13589269549999
 21
244.2114872345
  0
LINE
  8
_0-0_0
  6
CONTINUOUS
 62
    7
 10
40.13589269549999
 20
244.2114872345
 11
40.184173512499996
 21
244.18470259830002
  0
LINE
  8
_0-0_0
  6
CONTINUOUS
 62
    7
 10
40.184173512499996
 20
244.18470259830002
 11
40.237957903999984
 21
244.16684162070001
  0
LINE
  8
_0-0_0
  6
CONTINUOUS
 62
    7
 10
40.237957903999984
 20
244.16684162070001
 11
40.296117909200007
 21
244.15903633940002
  0
LINE
  8
_0-0_0
  6
CONTINUOUS
 62
    7
 10
40.558852361800007
 20
241.25757022330001
 11
40.557694484199999
 21
241.22918443900002
  0
LINE
  8
_0-0_0
  6
CONTINUOUS
 62
    7
 10
40.557694484199999
 20
241.22918443900002
 11
40.543089262999985
 21
241.17193433860001
  0
LINE
  8
_0-0_0
  6
CONTINUOUS
 62
    7
 10
40.543089262999985
 20
241.17193433860001
 11
40.517855323300012
 21
241.11984764140001
  0
LINE
  8
_0-0_0
  6
CONTINUOUS
 62
    7
 10
40.517855323300012
 20
241.11984764140001
 11
40.481309030099993
 21
241.0707169197
  0
LINE
  8
_0-0_0
  6
CONTINUOUS
 62
    7
 10
40.481309030099993
 20
241.0707169197
 11
40.435717889599999
 21
241.02815579430001
  0
LINE
  8
_0-0_0
  6
CONTINUOUS
 62
    7
 10
40.435717889599999
 20
241.02815579430001
 11
40.380125916099985
 21
240.99163340390001
  0
LINE
  8
_0-0_0
  6
CONTINUOUS
 62
    7
 10
40.380125916099985
 20
240.99163340390001
 11
40.3251446413
 21
240.9663950362
  0
LINE
  8
_0-0_0
  6
CONTINUOUS
 62
    7
 10
40.3251446413
 20
240.9663950362
 11
40.320576034999988
 21
241.00296104810002
  0
LINE
  8
_0-0_0
  6
CONTINUOUS
 62
    7
 10
40.320576034999988
 20
241.00296104810002
 11
40.318163454799986
 21
241.02396185650002
  0
LINE
  8
_0-0_0
  6
CONTINUOUS
 62
    7
 10
40.318163454799986
 20
241.02396185650002
 11
40.294495789299987
 21
241.01628704360002
  0
LINE
  8
_0-0_0
  6
CONTINUOUS
 62
    7
 10
40.294495789299987
 20
241.01628704360002
 11
40.287632335399991
 21
241.0143148585
  0
LINE
  8
_0-0_0
  6
CONTINUOUS
 62
    7
 10
40.287632335399991
 20
241.0143148585
 11
40.266439851200005
 21
240.91539332310001
  0
LINE
  8
_0-0_0
  6
CONTINUOUS
 62
    7
 10
40.266439851200005
 20
240.91539332310001
 11
40.261196813299989
 21
240.8929751796
  0
LINE
  8
_0-0_0
  6
CONTINUOUS
 62
    7
 10
40.261196813299989
 20
240.8929751796
 11
40.230846242199988
 21
240.88686740440002
  0
LINE
  8
_0-0_0
  6
CONTINUOUS
 62
    7
 10
40.230846242199988
 20
240.88686740440002
 11
40.220690058999992
 21
240.96503129390001
  0
LINE
  8
_0-0_0
  6
CONTINUOUS
 62
    7
 10
40.220690058999992
 20
240.96503129390001
 11
40.216818438499985
 21
241.00006171070001
  0
LINE
  8
_0-0_0
  6
CONTINUOUS
 62
    7
 10
40.216818438499985
 20
241.00006171070001
 11
40.186630734299996
 21
240.9971465559
  0
LINE
  8
_0-0_0
  6
CONTINUOUS
 62
    7
 10
40.186630734299996
 20
240.9971465559
 11
40.166472998699987
 21
240.90528448640001
  0
LINE
  8
_0-0_0
  6
CONTINUOUS
 62
    7
 10
40.166472998699987
 20
240.90528448640001
 11
40.160410068000004
 21
240.8800186194
  0
LINE
  8
_0-0_0
  6
CONTINUOUS
 62
    7
 10
40.160410068000004
 20
240.8800186194
 11
40.130374702599994
 21
240.8800897081
  0
LINE
  8
_0-0_0
  6
CONTINUOUS
 62
    7
 10
40.130374702599994
 20
240.8800897081
 11
40.119667895100008
 21
240.96750447730003
  0
LINE
  8
_0-0_0
  6
CONTINUOUS
 62
    7
 10
40.119667895100008
 20
240.96750447730003
 11
40.11655058529999
 21
240.99727680680002
  0
LINE
  8
_0-0_0
  6
CONTINUOUS
 62
    7
 10
40.11655058529999
 20
240.99727680680002
 11
40.086663844499981
 21
241.00026133130001
  0
LINE
  8
_0-0_0
  6
CONTINUOUS
 62
    7
 10
40.086663844499981
 20
241.00026133130001
 11
40.066797544999986
 21
240.91200444630002
  0
LINE
  8
_0-0_0
  6
CONTINUOUS
 62
    7
 10
40.066797544999986
 20
240.91200444630002
 11
40.060646827799985
 21
240.88712546390002
  0
LINE
  8
_0-0_0
  6
CONTINUOUS
 62
    7
 10
40.060646827799985
 20
240.88712546390002
 11
40.038014847400007
 21
240.89153252350002
  0
LINE
  8
_0-0_0
  6
CONTINUOUS
 62
    7
 10
40.038014847400007
 20
240.89153252350002
 11
40.030914558199981
 21
240.89313803140001
  0
LINE
  8
_0-0_0
  6
CONTINUOUS
 62
    7
 10
40.030914558199981
 20
240.89313803140001
 11
40.020804032699999
 21
240.97927269250002
  0
LINE
  8
_0-0_0
  6
CONTINUOUS
 62
    7
 10
40.020804032699999
 20
240.97927269250002
 11
40.017291309099988
 21
241.01426267580001
  0
LINE
  8
_0-0_0
  6
CONTINUOUS
 62
    7
 10
40.017291309099988
 20
241.01426267580001
 11
39.987721585799989
 21
241.0234615809
  0
LINE
  8
_0-0_0
  6
CONTINUOUS
 62
    7
 10
39.987721585799989
 20
241.0234615809
 11
39.968444715599986
 21
240.94013649770002
  0
LINE
  8
_0-0_0
  6
CONTINUOUS
 62
    7
 10
39.968444715599986
 20
240.94013649770002
 11
39.961923994100005
 21
240.9146270235
  0
LINE
  8
_0-0_0
  6
CONTINUOUS
 62
    7
 10
39.961923994100005
 20
240.9146270235
 11
39.932534744199984
 21
240.92736368500002
  0
LINE
  8
_0-0_0
  6
CONTINUOUS
 62
    7
 10
39.932534744199984
 20
240.92736368500002
 11
39.925673370099986
 21
240.986950785
  0
LINE
  8
_0-0_0
  6
CONTINUOUS
 62
    7
 10
39.925673370099986
 20
240.986950785
 11
39.892654973499987
 21
241.00530863060001
  0
LINE
  8
_0-0_0
  6
CONTINUOUS
 62
    7
 10
39.892654973499987
 20
241.00530863060001
 11
39.83973487999998
 21
241.0437077011
  0
LINE
  8
_0-0_0
  6
CONTINUOUS
 62
    7
 10
39.83973487999998
 20
241.0437077011
 11
39.794085096900005
 21
241.09007603200001
  0
LINE
  8
_0-0_0
  6
CONTINUOUS
 62
    7
 10
39.794085096900005
 20
241.09007603200001
 11
39.759912952299999
 21
241.1397812125
  0
LINE
  8
_0-0_0
  6
CONTINUOUS
 62
    7
 10
39.759912952299999
 20
241.1397812125
 11
39.735542988600002
 21
241.1947503124
  0
LINE
  8
_0-0_0
  6
CONTINUOUS
 62
    7
 10
39.735542988600002
 20
241.1947503124
 11
39.722893760999995
 21
241.25111015260001
  0
LINE
  8
_0-0_0
  6
CONTINUOUS
 62
    7
 10
39.722893760999995
 20
241.25111015260001
 11
39.722211549099995
 21
241.29764668180002
  0
ARC
  8
_0-0_0
  6
CONTINUOUS
 62
    7
 10
40.68064039539999
 20
251.59383213540002
 40
0.1554133377269933
 50
186.34662408130001
 51
347.25355664339997
  0
LINE
  8
_0-0_0
  6
CONTINUOUS
 62
    7
 10
40.291463154199988
 20
250.76644000530001
 11
40.295593814600011
 21
250.7827116263
  0
LINE
  8
_0-0_0
  6
CONTINUOUS
 62
    7
 10
40.295593814600011
 20
250.7827116263
 11
40.303702288599993
 21
250.81966458870002
  0
ARC
  8
_0-0_0
  6
CONTINUOUS
 62
    7
 10
37.594108695300008
 20
251.37191739280001
 40
2.76529936914589
 50
348.48010739770001
 51
350.63834411869999
  0
LINE
  8
_0-0_0
  6
CONTINUOUS
 62
    7
 10
40.291463154199988
 20
250.76644000530001
 11
40.294229290299995
 21
250.67641459880002
  0
LINE
  8
_0-0_0
  6
CONTINUOUS
 62
    7
 10
40.294229290299995
 20
250.67641459880002
 11
40.312280069499991
 21
250.5868261281
  0
LINE
  8
_0-0_0
  6
CONTINUOUS
 62
    7
 10
40.312280069499991
 20
250.5868261281
 11
40.347705052199984
 21
250.4993104552
  0
LINE
  8
_0-0_0
  6
CONTINUOUS
 62
    7
 10
40.347705052199984
 20
250.4993104552
 11
40.388135050699987
 21
250.43679507340002
  0
LINE
  8
_0-0_0
  6
CONTINUOUS
 62
    7
 10
40.388135050699987
 20
250.43679507340002
 11
40.443715117399989
 21
250.37987388500002
  0
LINE
  8
_0-0_0
  6
CONTINUOUS
 62
    7
 10
40.443715117399989
 20
250.37987388500002
 11
40.478425108199986
 21
250.3551868998
  0
LINE
  8
_0-0_0
  6
CONTINUOUS
 62
    7
 10
40.478425108199986
 20
250.3551868998
 11
40.518280402199991
 21
250.33462164120002
  0
LINE
  8
_0-0_0
  6
CONTINUOUS
 62
    7
 10
40.518280402199991
 20
250.33462164120002
 11
40.563025019399987
 21
250.3199604925
  0
LINE
  8
_0-0_0
  6
CONTINUOUS
 62
    7
 10
40.563025019399987
 20
250.3199604925
 11
40.61111793409998
 21
250.3130906863
  0
LINE
  8
_0-0_0
  6
CONTINUOUS
 62
    7
 10
40.61111793409998
 20
250.3130906863
 11
40.659654942999992
 21
250.3149678533
  0
LINE
  8
_0-0_0
  6
CONTINUOUS
 62
    7
 10
40.659654942999992
 20
250.3149678533
 11
40.705649597199994
 21
250.32494097
  0
LINE
  8
_0-0_0
  6
CONTINUOUS
 62
    7
 10
40.705649597199994
 20
250.32494097
 11
40.747377650000004
 21
250.34129143840002
  0
LINE
  8
_0-0_0
  6
CONTINUOUS
 62
    7
 10
40.747377650000004
 20
250.34129143840002
 11
40.784404095599996
 21
250.36227247810001
  0
LINE
  8
_0-0_0
  6
CONTINUOUS
 62
    7
 10
40.784404095599996
 20
250.36227247810001
 11
40.845452488399985
 21
250.41316876050001
  0
LINE
  8
_0-0_0
  6
CONTINUOUS
 62
    7
 10
40.845452488399985
 20
250.41316876050001
 11
40.891995561999977
 21
250.47119132740002
  0
LINE
  8
_0-0_0
  6
CONTINUOUS
 62
    7
 10
40.891995561999977
 20
250.47119132740002
 11
40.936088647100007
 21
250.55459947510002
  0
LINE
  8
_0-0_0
  6
CONTINUOUS
 62
    7
 10
40.936088647100007
 20
250.55459947510002
 11
40.943686549799992
 21
250.57913753550002
  0
LINE
  8
_0-0_0
  6
CONTINUOUS
 62
    7
 10
40.291777378399985
 20
250.7678409545
 11
40.291463154199988
 21
250.76644000530001
  0
LINE
  8
_0-0_0
  6
CONTINUOUS
 62
    7
 10
40.312328696000009
 20
250.87027164970002
 11
40.302815926699992
 21
250.829403087
  0
LINE
  8
_0-0_0
  6
CONTINUOUS
 62
    7
 10
40.317304369599981
 20
250.88793316180002
 11
40.31287281409999
 21
250.87227179390001
  0
LINE
  8
_0-0_0
  6
CONTINUOUS
 62
    7
 10
40.261154592699995
 20
249.96519166730002
 11
40.291463154199988
 21
250.76644000530001
  0
LINE
  8
_0-0_0
  6
CONTINUOUS
 62
    7
 10
40.958908076499995
 20
250.48612391590001
 11
40.922620593599987
 21
249.9324695251
  0
LINE
  8
_0-0_0
  6
CONTINUOUS
 62
    7
 10
40.292549754300012
 20
250.72976383210002
 11
40.291463154199988
 21
250.76644000530001
  0
LINE
  8
_0-0_0
  6
CONTINUOUS
 62
    7
 10
40.516031523599992
 20
252.76987925590001
 11
40.551476647800001
 21
252.8268331628
  0
LINE
  8
_0-0_0
  6
CONTINUOUS
 62
    7
 10
40.551476647800001
 20
252.8268331628
 11
40.612392152799998
 21
252.87535954580002
  0
LINE
  8
_0-0_0
  6
CONTINUOUS
 62
    7
 10
40.612392152799998
 20
252.87535954580002
 11
40.685275231499986
 21
252.90043439800002
  0
LINE
  8
_0-0_0
  6
CONTINUOUS
 62
    7
 10
40.685275231499986
 20
252.90043439800002
 11
40.732740779300002
 21
252.90308653560001
  0
LINE
  8
_0-0_0
  6
CONTINUOUS
 62
    7
 10
40.732740779300002
 20
252.90308653560001
 11
40.807019166499998
 21
252.88664217580001
  0
LINE
  8
_0-0_0
  6
CONTINUOUS
 62
    7
 10
40.807019166499998
 20
252.88664217580001
 11
40.871634584600002
 21
252.846669367
  0
LINE
  8
_0-0_0
  6
CONTINUOUS
 62
    7
 10
40.871634584600002
 20
252.846669367
 11
40.919752321599987
 21
252.78745275900002
  0
LINE
  8
_0-0_0
  6
CONTINUOUS
 62
    7
 10
40.919752321599987
 20
252.78745275900002
 11
40.933213685299989
 21
252.75035750820001
  0
LINE
  8
_0-0_0
  6
CONTINUOUS
 62
    7
 10
39.925673370099986
 20
240.986950785
 11
39.892654973499987
 21
241.00530863060001
  0
LINE
  8
_0-0_0
  6
CONTINUOUS
 62
    7
 10
39.892654973499987
 20
241.00530863060001
 11
39.83973487999998
 21
241.0437077011
  0
LINE
  8
_0-0_0
  6
CONTINUOUS
 62
    7
 10
39.83973487999998
 20
241.0437077011
 11
39.794085096900005
 21
241.09007603200001
  0
LINE
  8
_0-0_0
  6
CONTINUOUS
 62
    7
 10
39.794085096900005
 20
241.09007603200001
 11
39.759912952299999
 21
241.1397812125
  0
LINE
  8
_0-0_0
  6
CONTINUOUS
 62
    7
 10
39.759912952299999
 20
241.1397812125
 11
39.735542988600002
 21
241.1947503124
  0
LINE
  8
_0-0_0
  6
CONTINUOUS
 62
    7
 10
39.735542988600002
 20
241.1947503124
 11
39.722893760999995
 21
241.25111015260001
  0
LINE
  8
_0-0_0
  6
CONTINUOUS
 62
    7
 10
39.722893760999995
 20
241.25111015260001
 11
39.722201736199992
 21
241.2983160613
  0
LINE
  8
_0-0_0
  6
CONTINUOUS
 62
    7
 10
39.932534744199984
 20
240.92736368500002
 11
39.925673370099986
 21
240.986950785
  0
LINE
  8
_0-0_0
  6
CONTINUOUS
 62
    7
 10
39.961923994100005
 20
240.9146270235
 11
39.932534744199984
 21
240.92736368500002
  0
LINE
  8
_0-0_0
  6
CONTINUOUS
 62
    7
 10
39.987721585799989
 20
241.0234615809
 11
39.968444715599986
 21
240.94013649770002
  0
LINE
  8
_0-0_0
  6
CONTINUOUS
 62
    7
 10
39.968444715599986
 20
240.94013649770002
 11
39.961923994100005
 21
240.9146270235
  0
LINE
  8
_0-0_0
  6
CONTINUOUS
 62
    7
 10
40.017291309099988
 20
241.01426267580001
 11
39.987721585799989
 21
241.0234615809
  0
LINE
  8
_0-0_0
  6
CONTINUOUS
 62
    7
 10
40.030914558199981
 20
240.89313803140001
 11
40.020804032699999
 21
240.97927269250002
  0
LINE
  8
_0-0_0
  6
CONTINUOUS
 62
    7
 10
40.020804032699999
 20
240.97927269250002
 11
40.017291309099988
 21
241.01426267580001
  0
LINE
  8
_0-0_0
  6
CONTINUOUS
 62
    7
 10
40.060646827799985
 20
240.88712546390002
 11
40.038014847400007
 21
240.89153252350002
  0
LINE
  8
_0-0_0
  6
CONTINUOUS
 62
    7
 10
40.038014847400007
 20
240.89153252350002
 11
40.030914558199981
 21
240.89313803140001
  0
LINE
  8
_0-0_0
  6
CONTINUOUS
 62
    7
 10
40.086663844499981
 20
241.00026133130001
 11
40.066797544999986
 21
240.91200444630002
  0
LINE
  8
_0-0_0
  6
CONTINUOUS
 62
    7
 10
40.066797544999986
 20
240.91200444630002
 11
40.060646827799985
 21
240.88712546390002
  0
LINE
  8
_0-0_0
  6
CONTINUOUS
 62
    7
 10
40.11655058529999
 20
240.99727680680002
 11
40.086663844499981
 21
241.00026133130001
  0
LINE
  8
_0-0_0
  6
CONTINUOUS
 62
    7
 10
40.130374702599994
 20
240.8800897081
 11
40.119667895100008
 21
240.96750447730003
  0
LINE
  8
_0-0_0
  6
CONTINUOUS
 62
    7
 10
40.119667895100008
 20
240.96750447730003
 11
40.11655058529999
 21
240.99727680680002
  0
LINE
  8
_0-0_0
  6
CONTINUOUS
 62
    7
 10
40.160410068000004
 20
240.8800186194
 11
40.130374702599994
 21
240.8800897081
  0
LINE
  8
_0-0_0
  6
CONTINUOUS
 62
    7
 10
40.186630734299996
 20
240.9971465559
 11
40.166472998699987
 21
240.90528448640001
  0
LINE
  8
_0-0_0
  6
CONTINUOUS
 62
    7
 10
40.166472998699987
 20
240.90528448640001
 11
40.160410068000004
 21
240.8800186194
  0
LINE
  8
_0-0_0
  6
CONTINUOUS
 62
    7
 10
40.216818438499985
 20
241.00006171070001
 11
40.186630734299996
 21
240.9971465559
  0
LINE
  8
_0-0_0
  6
CONTINUOUS
 62
    7
 10
40.230846242199988
 20
240.88686740440002
 11
40.220690058999992
 21
240.96503129390001
  0
LINE
  8
_0-0_0
  6
CONTINUOUS
 62
    7
 10
40.220690058999992
 20
240.96503129390001
 11
40.216818438499985
 21
241.00006171070001
  0
LINE
  8
_0-0_0
  6
CONTINUOUS
 62
    7
 10
40.261196813299989
 20
240.8929751796
 11
40.230846242199988
 21
240.88686740440002
  0
LINE
  8
_0-0_0
  6
CONTINUOUS
 62
    7
 10
40.287632335399991
 20
241.0143148585
 11
40.266439851200005
 21
240.91539332310001
  0
LINE
  8
_0-0_0
  6
CONTINUOUS
 62
    7
 10
40.266439851200005
 20
240.91539332310001
 11
40.261196813299989
 21
240.8929751796
  0
LINE
  8
_0-0_0
  6
CONTINUOUS
 62
    7
 10
40.318163454799986
 20
241.02396185650002
 11
40.294495789299987
 21
241.01628704360002
  0
LINE
  8
_0-0_0
  6
CONTINUOUS
 62
    7
 10
40.294495789299987
 20
241.01628704360002
 11
40.287632335399991
 21
241.0143148585
  0
LINE
  8
_0-0_0
  6
CONTINUOUS
 62
    7
 10
40.3251446413
 20
240.9663950362
 11
40.320576034999988
 21
241.00296104810002
  0
LINE
  8
_0-0_0
  6
CONTINUOUS
 62
    7
 10
40.320576034999988
 20
241.00296104810002
 11
40.318163454799986
 21
241.02396185650002
  0
LINE
  8
_0-0_0
  6
CONTINUOUS
 62
    7
 10
40.558901189599993
 20
241.258767256
 11
40.557694484199999
 21
241.22918443900002
  0
LINE
  8
_0-0_0
  6
CONTINUOUS
 62
    7
 10
40.557694484199999
 20
241.22918443900002
 11
40.543089262999985
 21
241.17193433860001
  0
LINE
  8
_0-0_0
  6
CONTINUOUS
 62
    7
 10
40.543089262999985
 20
241.17193433860001
 11
40.517855323300012
 21
241.11984764140001
  0
LINE
  8
_0-0_0
  6
CONTINUOUS
 62
    7
 10
40.517855323300012
 20
241.11984764140001
 11
40.481309030099993
 21
241.0707169197
  0
LINE
  8
_0-0_0
  6
CONTINUOUS
 62
    7
 10
40.481309030099993
 20
241.0707169197
 11
40.435717889599999
 21
241.02815579430001
  0
LINE
  8
_0-0_0
  6
CONTINUOUS
 62
    7
 10
40.435717889599999
 20
241.02815579430001
 11
40.380125916099985
 21
240.99163340390001
  0
LINE
  8
_0-0_0
  6
CONTINUOUS
 62
    7
 10
40.380125916099985
 20
240.99163340390001
 11
40.3251446413
 21
240.9663950362
  0
LINE
  8
_0-0_0
  6
CONTINUOUS
 62
    7
 10
40.220681829599982
 20
240.47423462610001
 11
40.182003581400011
 21
240.45235562120001
  0
LINE
  8
_0-0_0
  6
CONTINUOUS
 62
    7
 10
40.182003581400011
 20
240.45235562120001
 11
40.103542769000001
 21
240.43832243030002
  0
LINE
  8
_0-0_0
  6
CONTINUOUS
 62
    7
 10
40.103542769000001
 20
240.43832243030002
 11
40.05399974689999
 21
240.44314538290001
  0
LINE
  8
_0-0_0
  6
CONTINUOUS
 62
    7
 10
40.05399974689999
 20
240.44314538290001
 11
39.979765913499989
 21
240.47201839580001
  0
LINE
  8
_0-0_0
  6
CONTINUOUS
 62
    7
 10
39.979765913499989
 20
240.47201839580001
 11
39.956194587499994
 21
240.49220655230002
  0
LINE
  8
_0-0_0
  6
CONTINUOUS
 62
    7
 10
40.598824207999996
 20
244.9127707845
 11
40.59928782359998
 21
244.92178971750002
  0
LINE
  8
_0-0_0
  6
CONTINUOUS
 62
    7
 10
50.043316768500006
 20
244.9127569851
 11
50.042852507799978
 21
244.92178846690001
  0
LINE
  8
_0-0_0
  6
CONTINUOUS
 62
    7
 10
40.567538325300006
 20
241.39650039290001
 11
40.57690538129998
 21
241.39646171710001
  0
LINE
  8
_0-0_0
  6
CONTINUOUS
 62
    7
 10
40.577550667799983
 20
241.41743853630001
 11
40.568630956199996
 21
241.4174756411
  0
LINE
  8
_0-0_0
  6
CONTINUOUS
 62
    7
 10
50.064686355600003
 20
241.4173761719
 11
50.073599489499998
 21
241.41741758380002
  0
LINE
  8
_0-0_0
  6
CONTINUOUS
 62
    7
 10
50.074692787999993
 20
241.39644325830002
 11
50.065332837200003
 21
241.39640008710001
  0
LINE
  8
_0-0_0
  6
CONTINUOUS
 62
    7
 10
49.950280178500009
 20
245.78665956560002
 11
50.039653728199994
 21
244.09486371920002
  0
LINE
  8
_0-0_0
  6
CONTINUOUS
 62
    7
 10
40.691860088599981
 20
245.78665956560002
 11
40.602486538899996
 21
244.09486371920002
  0
LINE
  8
_0-0_0
  6
CONTINUOUS
 62
    7
 10
50.092297393199999
 20
241.08352204640002
 11
50.0905832487
 21
241.1310689254
  0
LINE
  8
_0-0_0
  6
CONTINUOUS
 62
    7
 10
50.0905832487
 20
241.1310689254
 11
50.092607864599984
 21
241.14960375790002
  0
LINE
  8
_0-0_0
  6
CONTINUOUS
 62
    7
 10
40.549842912700001
 20
241.08352312050002
 11
40.550490065799977
 21
241.10147383240002
  0
LINE
  8
_0-0_0
  6
CONTINUOUS
 62
    7
 10
40.551348366799999
 20
241.12528135280002
 11
40.55155701839999
 21
241.1310689254
  0
LINE
  8
_0-0_0
  6
CONTINUOUS
 62
    7
 10
40.55155701839999
 20
241.1310689254
 11
40.5493574841
 21
241.15120509050001
  0
LINE
  8
_0-0_0
  6
CONTINUOUS
 62
    7
 10
50.173185080899998
 20
240.86004152790002
 11
50.178953798900011
 21
240.81783685020002
  0
LINE
  8
_0-0_0
  6
CONTINUOUS
 62
    7
 10
50.178953798900011
 20
240.81783685020002
 11
50.179010043000005
 21
240.81753494720002
  0
ARC
  8
_0-0_0
  6
CONTINUOUS
 62
    7
 10
42.686827659100004
 20
236.20415406950002
 40
8.8160555506715443
 50
31.878152766800003
 51
32.160035102099997
  0
LINE
  8
_0-0_0
  6
CONTINUOUS
 62
    7
 10
50.179010043000005
 20
240.81753494720002
 11
50.178393667999984
 21
240.81786003640002
  0
ARC
  8
_0-0_0
  6
CONTINUOUS
 62
    7
 10
47.955312612699998
 20
236.20415406660001
 40
8.8160555561094647
 50
147.83996489789999
 51
148.1218472331
  0
LINE
  8
_0-0_0
  6
CONTINUOUS
 62
    7
 10
40.468955186199992
 20
240.86004152790002
 11
40.463186468199979
 21
240.81783685020002
  0
LINE
  8
_0-0_0
  6
CONTINUOUS
 62
    7
 10
40.463186468199979
 20
240.81783685020002
 11
40.4631302242
 21
240.81753494720002
  0
LINE
  8
_0-0_0
  6
CONTINUOUS
 62
    7
 10
40.4631302242
 20
240.81753494720002
 11
40.463748199500003
 21
240.81786088050001
  0
LINE
  8
_0-0_0
  6
CONTINUOUS
 62
    7
 10
47.468008298200004
 20
250.5827296086
 11
48.00058455300001
 21
250.54707784070001
  0
LINE
  8
_0-0_0
  6
CONTINUOUS
 62
    7
 10
48.00058455300001
 20
250.54707784070001
 11
48.361769193599997
 21
250.51637792760002
  0
LINE
  8
_0-0_0
  6
CONTINUOUS
 62
    7
 10
48.361769193599997
 20
250.51637792760002
 11
48.7227380649
 21
250.4832215358
  0
LINE
  8
_0-0_0
  6
CONTINUOUS
 62
    7
 10
48.7227380649
 20
250.4832215358
 11
49.084057523899986
 21
250.45406560170002
  0
LINE
  8
_0-0_0
  6
CONTINUOUS
 62
    7
 10
49.084057523899986
 20
250.45406560170002
 11
49.445918775199999
 21
250.43247848590002
  0
LINE
  8
_0-0_0
  6
CONTINUOUS
 62
    7
 10
49.445918775199999
 20
250.43247848590002
 11
49.447456182400003
 21
250.4324030834
  0
LINE
  8
_0-0_0
  6
CONTINUOUS
 62
    7
 10
45.321883034599978
 20
252.59914839150002
 11
45.774104202399997
 21
252.58451295980001
  0
LINE
  8
_0-0_0
  6
CONTINUOUS
 62
    7
 10
45.774104202399997
 20
252.58451295980001
 11
46.225558492900007
 21
252.5510880473
  0
LINE
  8
_0-0_0
  6
CONTINUOUS
 62
    7
 10
46.225558492900007
 20
252.5510880473
 11
46.675534507799995
 21
252.49887347040001
  0
LINE
  8
_0-0_0
  6
CONTINUOUS
 62
    7
 10
46.675534507799995
 20
252.49887347040001
 11
47.123320211100008
 21
252.42786899570001
  0
LINE
  8
_0-0_0
  6
CONTINUOUS
 62
    7
 10
47.123320211100008
 20
252.42786899570001
 11
47.5682028624
 21
252.33807484090002
  0
LINE
  8
_0-0_0
  6
CONTINUOUS
 62
    7
 10
47.5682028624
 20
252.33807484090002
 11
47.98612997890001
 21
252.2357305557
  0
LINE
  8
_0-0_0
  6
CONTINUOUS
 62
    7
 10
47.98612997890001
 20
252.2357305557
 11
48.400208429700001
 21
252.11654351440001
  0
LINE
  8
_0-0_0
  6
CONTINUOUS
 62
    7
 10
48.400208429700001
 20
252.11654351440001
 11
48.811970575499998
 21
251.99228397260001
  0
LINE
  8
_0-0_0
  6
CONTINUOUS
 62
    7
 10
48.811970575499998
 20
251.99228397260001
 11
49.223942889299991
 21
251.87789365020001
  0
LINE
  8
_0-0_0
  6
CONTINUOUS
 62
    7
 10
49.223942889299991
 20
251.87789365020001
 11
49.633592689699981
 21
251.77400182600002
  0
LINE
  8
_0-0_0
  6
CONTINUOUS
 62
    7
 10
49.454792112900009
 20
250.43204515280001
 11
49.454900619999989
 21
250.43204518360002
  0
LINE
  8
_0-0_0
  6
CONTINUOUS
 62
    7
 10
49.454900619999989
 20
250.43204518360002
 11
49.455016177299996
 21
250.4320571977
  0
LINE
  8
_0-0_0
  6
CONTINUOUS
 62
    7
 10
49.455016177299996
 20
250.4320571977
 11
49.455176682099989
 21
250.43209555750002
  0
LINE
  8
_0-0_0
  6
CONTINUOUS
 62
    7
 10
49.455176682099989
 20
250.43209555750002
 11
49.4555154958
 21
250.43226944380001
  0
LINE
  8
_0-0_0
  6
CONTINUOUS
 62
    7
 10
49.4555154958
 20
250.43226944380001
 11
49.456218597499998
 21
250.43320992950001
  0
LINE
  8
_0-0_0
  6
CONTINUOUS
 62
    7
 10
49.456218597499998
 20
250.43320992950001
 11
49.456765950399983
 21
250.4371010584
  0
LINE
  8
_0-0_0
  6
CONTINUOUS
 62
    7
 10
49.456765950399983
 20
250.4371010584
 11
49.456199009199992
 21
250.44057225990002
  0
LINE
  8
_0-0_0
  6
CONTINUOUS
 62
    7
 10
45.321070252200002
 20
252.8361645475
 11
45.321070252200002
 21
252.8363989753
  0
LINE
  8
_0-0_0
  6
CONTINUOUS
 62
    7
 10
45.321070252200002
 20
252.83319844970001
 11
45.321070252200002
 21
252.59915790630001
  0
LINE
  8
_0-0_0
  6
CONTINUOUS
 62
    7
 10
49.705819482899983
 20
251.87481736700002
 11
49.708271167299984
 21
251.87439407350001
  0
LINE
  8
_0-0_0
  6
CONTINUOUS
 62
    7
 10
49.708271167299984
 20
251.87439407350001
 11
49.708312937399995
 21
251.8743269405
  0
LINE
  8
_0-0_0
  6
CONTINUOUS
 62
    7
 10
49.72194381380001
 20
251.6847704159
 11
49.72217560819999
 21
251.68566079360002
  0
LINE
  8
_0-0_0
  6
CONTINUOUS
 62
    7
 10
49.72217560819999
 20
251.68566079360002
 11
49.72168910329998
 21
251.70236082420001
  0
LINE
  8
_0-0_0
  6
CONTINUOUS
 62
    7
 10
49.72168910329998
 20
251.70236082420001
 11
49.711240473200007
 21
251.7229728529
  0
LINE
  8
_0-0_0
  6
CONTINUOUS
 62
    7
 10
49.711240473200007
 20
251.7229728529
 11
49.691471342999989
 21
251.743260069
  0
LINE
  8
_0-0_0
  6
CONTINUOUS
 62
    7
 10
49.691471342999989
 20
251.743260069
 11
49.664610024799998
 21
251.7609361474
  0
LINE
  8
_0-0_0
  6
CONTINUOUS
 62
    7
 10
49.664610024799998
 20
251.7609361474
 11
49.633684456799983
 21
251.77400847630003
  0
LINE
  8
_0-0_0
  6
CONTINUOUS
 62
    7
 10
49.456199009199992
 20
250.44057225990002
 11
49.457503360899977
 21
250.4366614262
  0
LINE
  8
_0-0_0
  6
CONTINUOUS
 62
    7
 10
49.457503360899977
 20
250.4366614262
 11
49.458388669100003
 21
250.4350244371
  0
LINE
  8
_0-0_0
  6
CONTINUOUS
 62
    7
 10
49.458388669100003
 20
250.4350244371
 11
49.459287532899992
 21
250.4341601822
  0
LINE
  8
_0-0_0
  6
CONTINUOUS
 62
    7
 10
49.459287532899992
 20
250.4341601822
 11
49.460274273899984
 21
250.43369790060001
  0
LINE
  8
_0-0_0
  6
CONTINUOUS
 62
    7
 10
49.460274273899984
 20
250.43369790060001
 11
49.46155773289999
 21
250.43341406020002
  0
LINE
  8
_0-0_0
  6
CONTINUOUS
 62
    7
 10
49.46155773289999
 20
250.43341406020002
 11
49.463684651800008
 21
250.43324660600001
  0
LINE
  8
_0-0_0
  6
CONTINUOUS
 62
    7
 10
49.463684651800008
 20
250.43324660600001
 11
49.471852224599985
 21
250.4336573347
  0
LINE
  8
_0-0_0
  6
CONTINUOUS
 62
    7
 10
49.471852224599985
 20
250.4336573347
 11
49.50298253599999
 21
250.4424447092
  0
LINE
  8
_0-0_0
  6
CONTINUOUS
 62
    7
 10
49.50298253599999
 20
250.4424447092
 11
49.529533189000006
 21
250.4605052942
  0
LINE
  8
_0-0_0
  6
CONTINUOUS
 62
    7
 10
49.529533189000006
 20
250.4605052942
 11
49.549264108599999
 21
250.4868827935
  0
LINE
  8
_0-0_0
  6
CONTINUOUS
 62
    7
 10
49.549264108599999
 20
250.4868827935
 11
49.552478684699992
 21
250.49732491810002
  0
LINE
  8
_0-0_0
  6
CONTINUOUS
 62
    7
 10
49.89625651259999
 20
251.7309068534
 11
49.896479694800007
 21
251.73188161340002
  0
LINE
  8
_0-0_0
  6
CONTINUOUS
 62
    7
 10
49.896479694800007
 20
251.73188161340002
 11
49.895187974300001
 21
251.74233318880002
  0
ARC
  8
_0-0_0
  6
CONTINUOUS
 62
    7
 10
49.62165026049999
 20
250.51870959220003
 40
0.0692033432103018
 50
236.3099875881
 51
352.14458835409999
  0
LINE
  8
_0-0_0
  6
CONTINUOUS
 62
    7
 10
49.551474800699992
 20
250.50939264320002
 11
49.554917456599981
 21
250.49585014460001
  0
LINE
  8
_0-0_0
  6
CONTINUOUS
 62
    7
 10
49.554917456599981
 20
250.49585014460001
 11
49.5661310582
 21
250.47623408620001
  0
LINE
  8
_0-0_0
  6
CONTINUOUS
 62
    7
 10
49.5661310582
 20
250.47623408620001
 11
49.583263207899989
 21
250.46112889310001
  0
LINE
  8
_0-0_0
  6
CONTINUOUS
 62
    7
 10
45.321070015000004
 20
252.83616453960002
 11
45.321070015000004
 21
252.8363989753
  0
LINE
  8
_0-0_0
  6
CONTINUOUS
 62
    7
 10
45.320257232599999
 20
252.59914839150002
 11
44.868051912599981
 21
252.58451379520002
  0
LINE
  8
_0-0_0
  6
CONTINUOUS
 62
    7
 10
44.868051912599981
 20
252.58451379520002
 11
44.416615948399993
 21
252.5510912988
  0
LINE
  8
_0-0_0
  6
CONTINUOUS
 62
    7
 10
44.416615948399993
 20
252.5510912988
 11
43.966660819999987
 21
252.4988810074
  0
LINE
  8
_0-0_0
  6
CONTINUOUS
 62
    7
 10
43.966660819999987
 20
252.4988810074
 11
43.518898615300003
 21
252.42788322380002
  0
LINE
  8
_0-0_0
  6
CONTINUOUS
 62
    7
 10
43.518898615300003
 20
252.42788322380002
 11
43.074042216599992
 21
252.338097946
  0
LINE
  8
_0-0_0
  6
CONTINUOUS
 62
    7
 10
43.074042216599992
 20
252.338097946
 11
42.656129737800001
 21
252.23576369120002
  0
LINE
  8
_0-0_0
  6
CONTINUOUS
 62
    7
 10
42.656129737800001
 20
252.23576369120002
 11
42.242070171699993
 21
252.11658115
  0
LINE
  8
_0-0_0
  6
CONTINUOUS
 62
    7
 10
42.242070171699993
 20
252.11658115
 11
41.830291724999995
 21
251.99233012480002
  0
LINE
  8
_0-0_0
  6
CONTINUOUS
 62
    7
 10
41.830291724999995
 20
251.99233012480002
 11
41.418304324399998
 21
251.87788846610002
  0
LINE
  8
_0-0_0
  6
CONTINUOUS
 62
    7
 10
41.418304324399998
 20
251.87788846610002
 11
41.008527461799986
 21
251.77406829020001
  0
LINE
  8
_0-0_0
  6
CONTINUOUS
 62
    7
 10
43.174131969000001
 20
250.5827296086
 11
42.641555714099979
 21
250.54707784070001
  0
LINE
  8
_0-0_0
  6
CONTINUOUS
 62
    7
 10
42.641555714099979
 20
250.54707784070001
 11
42.280371073600008
 21
250.51637792760002
  0
LINE
  8
_0-0_0
  6
CONTINUOUS
 62
    7
 10
42.280371073600008
 20
250.51637792760002
 11
41.919402202299977
 21
250.4832215358
  0
LINE
  8
_0-0_0
  6
CONTINUOUS
 62
    7
 10
41.919402202299977
 20
250.4832215358
 11
41.558082743200004
 21
250.45406560170002
  0
LINE
  8
_0-0_0
  6
CONTINUOUS
 62
    7
 10
41.558082743200004
 20
250.45406560170002
 11
41.19622149189999
 21
250.43247848590002
  0
LINE
  8
_0-0_0
  6
CONTINUOUS
 62
    7
 10
41.19622149189999
 20
250.43247848590002
 11
41.194684084699986
 21
250.4324030834
  0
LINE
  8
_0-0_0
  6
CONTINUOUS
 62
    7
 10
41.187348154299997
 20
250.43204515280001
 11
41.1872396471
 21
250.43204518360002
  0
LINE
  8
_0-0_0
  6
CONTINUOUS
 62
    7
 10
41.1872396471
 20
250.43204518360002
 11
41.187124089799994
 21
250.4320571977
  0
LINE
  8
_0-0_0
  6
CONTINUOUS
 62
    7
 10
41.187124089799994
 20
250.4320571977
 11
41.186963585000001
 21
250.43209555750002
  0
LINE
  8
_0-0_0
  6
CONTINUOUS
 62
    7
 10
41.186963585000001
 20
250.43209555750002
 11
41.186624771299989
 21
250.43226944380001
  0
LINE
  8
_0-0_0
  6
CONTINUOUS
 62
    7
 10
41.186624771299989
 20
250.43226944380001
 11
41.185921669599992
 21
250.43320992950001
  0
LINE
  8
_0-0_0
  6
CONTINUOUS
 62
    7
 10
41.185921669599992
 20
250.43320992950001
 11
41.185374316700006
 21
250.4371010584
  0
LINE
  8
_0-0_0
  6
CONTINUOUS
 62
    7
 10
41.185374316700006
 20
250.4371010584
 11
41.185941257999986
 21
250.44057225990002
  0
LINE
  8
_0-0_0
  6
CONTINUOUS
 62
    7
 10
40.92019645329998
 20
251.6847704159
 11
40.919964658999987
 21
251.68566079360002
  0
LINE
  8
_0-0_0
  6
CONTINUOUS
 62
    7
 10
40.919964658999987
 20
251.68566079360002
 11
40.92045116380001
 21
251.70236082420001
  0
LINE
  8
_0-0_0
  6
CONTINUOUS
 62
    7
 10
40.92045116380001
 20
251.70236082420001
 11
40.930899793899982
 21
251.7229728529
  0
LINE
  8
_0-0_0
  6
CONTINUOUS
 62
    7
 10
40.930899793899982
 20
251.7229728529
 11
40.950668924199988
 21
251.743260069
  0
LINE
  8
_0-0_0
  6
CONTINUOUS
 62
    7
 10
40.950668924199988
 20
251.743260069
 11
40.977530242400007
 21
251.7609361474
  0
LINE
  8
_0-0_0
  6
CONTINUOUS
 62
    7
 10
40.977530242400007
 20
251.7609361474
 11
41.008455810300006
 21
251.77400847630003
  0
LINE
  8
_0-0_0
  6
CONTINUOUS
 62
    7
 10
41.185941257999986
 20
250.44057225990002
 11
41.1846369063
 21
250.4366614262
  0
LINE
  8
_0-0_0
  6
CONTINUOUS
 62
    7
 10
41.1846369063
 20
250.4366614262
 11
41.183751598100002
 21
250.4350244371
  0
LINE
  8
_0-0_0
  6
CONTINUOUS
 62
    7
 10
41.183751598100002
 20
250.4350244371
 11
41.182852734299985
 21
250.4341601822
  0
LINE
  8
_0-0_0
  6
CONTINUOUS
 62
    7
 10
41.182852734299985
 20
250.4341601822
 11
41.181865993200006
 21
250.43369790060001
  0
LINE
  8
_0-0_0
  6
CONTINUOUS
 62
    7
 10
41.181865993200006
 20
250.43369790060001
 11
41.180582534299987
 21
250.43341406020002
  0
LINE
  8
_0-0_0
  6
CONTINUOUS
 62
    7
 10
41.180582534299987
 20
250.43341406020002
 11
41.178455615299981
 21
250.43324660600001
  0
LINE
  8
_0-0_0
  6
CONTINUOUS
 62
    7
 10
41.178455615299981
 20
250.43324660600001
 11
41.170288042500005
 21
250.4336573347
  0
LINE
  8
_0-0_0
  6
CONTINUOUS
 62
    7
 10
41.170288042500005
 20
250.4336573347
 11
41.139157731199987
 21
250.4424447092
  0
LINE
  8
_0-0_0
  6
CONTINUOUS
 62
    7
 10
41.139157731199987
 20
250.4424447092
 11
41.112607078099984
 21
250.4605052942
  0
LINE
  8
_0-0_0
  6
CONTINUOUS
 62
    7
 10
41.112607078099984
 20
250.4605052942
 11
41.09287615849999
 21
250.4868827935
  0
LINE
  8
_0-0_0
  6
CONTINUOUS
 62
    7
 10
41.09287615849999
 20
250.4868827935
 11
41.089747515499994
 21
250.49704577590001
  0
ARC
  8
_0-0_0
  6
CONTINUOUS
 62
    7
 10
41.020490006599999
 20
250.51870959220003
 40
0.0692033432102537
 50
187.85541164579999
 51
303.6900124119
  0
LINE
  8
_0-0_0
  6
CONTINUOUS
 62
    7
 10
41.090665466399997
 20
250.50939264320002
 11
41.087222810599997
 21
250.49585014460001
  0
LINE
  8
_0-0_0
  6
CONTINUOUS
 62
    7
 10
41.087222810599997
 20
250.49585014460001
 11
41.07600920889999
 21
250.47623408620001
  0
LINE
  8
_0-0_0
  6
CONTINUOUS
 62
    7
 10
41.07600920889999
 20
250.47623408620001
 11
41.058877059299988
 21
250.46112889310001
  0
LINE
  8
_0-0_0
  6
CONTINUOUS
 62
    7
 10
40.56384708989998
 20
240.97196589720002
 11
40.689488661799999
 21
245.05629213700001
  0
LINE
  8
_0-0_0
  6
CONTINUOUS
 62
    7
 10
40.689488661799999
 20
245.05629213700001
 11
40.730995178299992
 21
246.40566218320001
  0
LINE
  8
_0-0_0
  6
CONTINUOUS
 62
    7
 10
40.56384708989998
 20
240.97196589720002
 11
40.566746195500002
 21
240.9820794238
  0
LINE
  8
_0-0_0
  6
CONTINUOUS
 62
    7
 10
49.911145088899985
 20
246.40566218320001
 11
49.952651605299991
 21
245.05629213660001
  0
LINE
  8
_0-0_0
  6
CONTINUOUS
 62
    7
 10
49.952651605299991
 20
245.05629213660001
 11
50.07829317720001
 21
240.97196589720002
  0
LINE
  8
_0-0_0
  6
CONTINUOUS
 62
    7
 10
50.075119013299997
 20
240.98303896440001
 11
50.07829317720001
 21
240.97196589720002
  0
ARC
  8
_0-0_0
  6
CONTINUOUS
 62
    7
 10
40.762525255699984
 20
240.96499516820001
 40
0.1982937597760212
 50
179.70989514639999
 51
265.71004897109998
  0
ARC
  8
_0-0_0
  6
CONTINUOUS
 62
    7
 10
49.879431256200007
 20
240.96537728130002
 40
0.1986877520418114
 50
274.3345478494
 51
0.1728348191999604
  0
ARC
  8
_0-0_0
  6
CONTINUOUS
 62
    7
 10
49.879623963499995
 20
240.95872665230002
 40
0.1985124075373977
 50
274.2837329752
 51
0.1987117428999986
  0
ARC
  8
_0-0_0
  6
CONTINUOUS
 62
    7
 10
40.76281065820001
 20
240.95905955290002
 40
0.1988664656809056
 50
179.89832360540001
 51
265.63886139729999
  0
LINE
  8
_0-0_0
  6
CONTINUOUS
 62
    7
 10
49.612781539799983
 20
249.3320260911
 11
49.619907092599988
 21
249.33308052180001
  0
LINE
  8
_0-0_0
  6
CONTINUOUS
 62
    7
 10
41.022161506799989
 20
249.3330911271
 11
41.029315278599995
 21
249.33203252060002
  0
ARC
  8
_0-0_0
  6
CONTINUOUS
 62
    7
 10
49.727239778799998
 20
249.815528707
 40
0.119282431112797
 50
93.776551577499987
 51
102.65710157909999
  0
LINE
  8
_0-0_0
  6
CONTINUOUS
 62
    7
 10
49.700781292499983
 20
249.93126877260002
 11
49.704529627099987
 21
249.9307081835
  0
LINE
  8
_0-0_0
  6
CONTINUOUS
 62
    7
 10
49.704529627099987
 20
249.9307081835
 11
49.719334656499996
 21
249.93047399120002
  0
LINE
  8
_0-0_0
  6
CONTINUOUS
 62
    7
 10
49.719334656499996
 20
249.93047399120002
 11
49.743646382399987
 21
249.93078620790001
  0
LINE
  8
_0-0_0
  6
CONTINUOUS
 62
    7
 10
49.743646382399987
 20
249.93078620790001
 11
49.776633059099993
 21
249.93163086680002
  0
LINE
  8
_0-0_0
  6
CONTINUOUS
 62
    7
 10
49.776633059099993
 20
249.93163086680002
 11
49.817397873999994
 21
249.93298837340001
  0
LINE
  8
_0-0_0
  6
CONTINUOUS
 62
    7
 10
49.817397873999994
 20
249.93298837340001
 11
49.864715897499991
 21
249.9348138384
  0
LINE
  8
_0-0_0
  6
CONTINUOUS
 62
    7
 10
49.864715897499991
 20
249.9348138384
 11
49.917358121700005
 21
249.93706286650001
  0
LINE
  8
_0-0_0
  6
CONTINUOUS
 62
    7
 10
49.917358121700005
 20
249.93706286650001
 11
49.973747946799989
 21
249.93966552770001
  0
LINE
  8
_0-0_0
  6
CONTINUOUS
 62
    7
 10
49.973747946799989
 20
249.93966552770001
 11
50.05413359649998
 21
249.94367094240002
  0
LINE
  8
_0-0_0
  6
CONTINUOUS
 62
    7
 10
50.05413359649998
 20
249.94367094240002
 11
50.123977116999981
 21
249.9474157882
  0
LINE
  8
_0-0_0
  6
CONTINUOUS
 62
    7
 10
50.123977116999981
 20
249.9474157882
 11
50.180481922199988
 21
249.95063706710002
  0
LINE
  8
_0-0_0
  6
CONTINUOUS
 62
    7
 10
50.180481922199988
 20
249.95063706710002
 11
50.233318225599987
 21
249.95382926330001
  0
LINE
  8
_0-0_0
  6
CONTINUOUS
 62
    7
 10
50.233318225599987
 20
249.95382926330001
 11
50.280944024099995
 21
249.95690221320001
  0
LINE
  8
_0-0_0
  6
CONTINUOUS
 62
    7
 10
50.280944024099995
 20
249.95690221320001
 11
50.322061926000003
 21
249.95976931550001
  0
LINE
  8
_0-0_0
  6
CONTINUOUS
 62
    7
 10
50.322061926000003
 20
249.95976931550001
 11
50.355379458500011
 21
249.9623436606
  0
LINE
  8
_0-0_0
  6
CONTINUOUS
 62
    7
 10
50.355379458500011
 20
249.9623436606
 11
50.380108396200001
 21
249.9645594376
  0
LINE
  8
_0-0_0
  6
CONTINUOUS
 62
    7
 10
50.380108396200001
 20
249.9645594376
 11
50.395442064999997
 21
249.9663516569
  0
LINE
  8
_0-0_0
  6
CONTINUOUS
 62
    7
 10
50.395442064999997
 20
249.9663516569
 11
50.40100823749998
 21
249.96767023090001
  0
LINE
  8
_0-0_0
  6
CONTINUOUS
 62
    7
 10
50.40100823749998
 20
249.96767023090001
 11
50.396546938
 21
249.96846909520002
  0
LINE
  8
_0-0_0
  6
CONTINUOUS
 62
    7
 10
50.396546938
 20
249.96846909520002
 11
50.382370390900007
 21
249.9687386411
  0
LINE
  8
_0-0_0
  6
CONTINUOUS
 62
    7
 10
50.382370390900007
 20
249.9687386411
 11
50.38085217470001
 21
249.96872091660001
  0
ARC
  8
_0-0_0
  6
CONTINUOUS
 62
    7
 10
49.670660996099997
 20
257.29573357520002
 40
7.3629588892687652
 50
270.39520295540001
 51
275.52161933470001
  0
LINE
  8
_0-0_0
  6
CONTINUOUS
 62
    7
 10
50.59204738279999
 20
244.95157185870002
 11
50.590446738899999
 21
244.95104752180001
  0
LINE
  8
_0-0_0
  6
CONTINUOUS
 62
    7
 10
50.590446738899999
 20
244.95104752180001
 11
50.579262235199991
 21
244.94964183670001
  0
LINE
  8
_0-0_0
  6
CONTINUOUS
 62
    7
 10
50.579262235199991
 20
244.94964183670001
 11
50.560858334199992
 21
244.9479308036
  0
LINE
  8
_0-0_0
  6
CONTINUOUS
 62
    7
 10
50.560858334199992
 20
244.9479308036
 11
50.534684523799996
 21
244.94586315790002
  0
LINE
  8
_0-0_0
  6
CONTINUOUS
 62
    7
 10
50.534684523799996
 20
244.94586315790002
 11
50.502912467399995
 21
244.94361066050001
  0
LINE
  8
_0-0_0
  6
CONTINUOUS
 62
    7
 10
50.502912467399995
 20
244.94361066050001
 11
50.464646677600001
 21
244.9411098928
  0
LINE
  8
_0-0_0
  6
CONTINUOUS
 62
    7
 10
50.464646677600001
 20
244.9411098928
 11
50.390958960099994
 21
244.93670402470002
  0
LINE
  8
_0-0_0
  6
CONTINUOUS
 62
    7
 10
50.390958960099994
 20
244.93670402470002
 11
50.310593665699997
 21
244.9323424849
  0
LINE
  8
_0-0_0
  6
CONTINUOUS
 62
    7
 10
50.310593665699997
 20
244.9323424849
 11
50.26264907609999
 21
244.92993293320001
  0
LINE
  8
_0-0_0
  6
CONTINUOUS
 62
    7
 10
50.26264907609999
 20
244.92993293320001
 11
50.216898925999999
 21
244.92777202260001
  0
LINE
  8
_0-0_0
  6
CONTINUOUS
 62
    7
 10
50.216898925999999
 20
244.92777202260001
 11
50.172488665900005
 21
244.92582149700002
  0
LINE
  8
_0-0_0
  6
CONTINUOUS
 62
    7
 10
50.172488665900005
 20
244.92582149700002
 11
50.133113288900006
 21
244.92424380760002
  0
LINE
  8
_0-0_0
  6
CONTINUOUS
 62
    7
 10
50.133113288900006
 20
244.92424380760002
 11
50.097677684499985
 21
244.92299525850001
  0
LINE
  8
_0-0_0
  6
CONTINUOUS
 62
    7
 10
50.097677684499985
 20
244.92299525850001
 11
50.069156810700008
 21
244.92218082330001
  0
LINE
  8
_0-0_0
  6
CONTINUOUS
 62
    7
 10
50.069156810700008
 20
244.92218082330001
 11
50.046738026299977
 21
244.92177753690001
  0
LINE
  8
_0-0_0
  6
CONTINUOUS
 62
    7
 10
50.046738026299977
 20
244.92177753690001
 11
50.032320720000001
 21
244.92181809280001
  0
LINE
  8
_0-0_0
  6
CONTINUOUS
 62
    7
 10
50.032320720000001
 20
244.92181809280001
 11
50.025436429999985
 21
244.9223021688
  0
LINE
  8
_0-0_0
  6
CONTINUOUS
 62
    7
 10
50.025436429999985
 20
244.9223021688
 11
50.025462046000001
 21
244.92232048810001
  0
ARC
  8
_0-0_0
  6
CONTINUOUS
 62
    7
 10
40.914913312900012
 20
249.8158383734
 40
0.1189725674653962
 50
77.281721943999997
 51
86.219788497500005
  0
LINE
  8
_0-0_0
  6
CONTINUOUS
 62
    7
 10
40.941436003399986
 20
249.93127416130002
 11
40.937797825199993
 21
249.93071266710001
  0
LINE
  8
_0-0_0
  6
CONTINUOUS
 62
    7
 10
40.937797825199993
 20
249.93071266710001
 11
40.922805610699982
 21
249.93047399120002
  0
LINE
  8
_0-0_0
  6
CONTINUOUS
 62
    7
 10
40.922805610699982
 20
249.93047399120002
 11
40.898924285499987
 21
249.93077674300002
  0
LINE
  8
_0-0_0
  6
CONTINUOUS
 62
    7
 10
40.898924285499987
 20
249.93077674300002
 11
40.865507207999997
 21
249.93163086680002
  0
LINE
  8
_0-0_0
  6
CONTINUOUS
 62
    7
 10
40.865507207999997
 20
249.93163086680002
 11
40.825402062600006
 21
249.93296382220001
  0
LINE
  8
_0-0_0
  6
CONTINUOUS
 62
    7
 10
40.825402062600006
 20
249.93296382220001
 11
40.777424369599998
 21
249.9348138384
  0
LINE
  8
_0-0_0
  6
CONTINUOUS
 62
    7
 10
40.777424369599998
 20
249.9348138384
 11
40.725580397300007
 21
249.9370265883
  0
LINE
  8
_0-0_0
  6
CONTINUOUS
 62
    7
 10
40.725580397300007
 20
249.9370265883
 11
40.668392320300001
 21
249.93966552770001
  0
LINE
  8
_0-0_0
  6
CONTINUOUS
 62
    7
 10
40.668392320300001
 20
249.93966552770001
 11
40.588006670699997
 21
249.94367094240002
  0
LINE
  8
_0-0_0
  6
CONTINUOUS
 62
    7
 10
40.588006670699997
 20
249.94367094240002
 11
40.518163150199996
 21
249.9474157882
  0
LINE
  8
_0-0_0
  6
CONTINUOUS
 62
    7
 10
40.518163150199996
 20
249.9474157882
 11
40.462431214899993
 21
249.9505910208
  0
LINE
  8
_0-0_0
  6
CONTINUOUS
 62
    7
 10
40.462431214899993
 20
249.9505910208
 11
40.40882204159999
 21
249.95382926330001
  0
LINE
  8
_0-0_0
  6
CONTINUOUS
 62
    7
 10
40.40882204159999
 20
249.95382926330001
 11
40.361813467899992
 21
249.95686011430001
  0
LINE
  8
_0-0_0
  6
CONTINUOUS
 62
    7
 10
40.361813467899992
 20
249.95686011430001
 11
40.320078341099986
 21
249.95976931550001
  0
LINE
  8
_0-0_0
  6
CONTINUOUS
 62
    7
 10
40.320078341099986
 20
249.95976931550001
 11
40.287147383899992
 21
249.9623104753
  0
LINE
  8
_0-0_0
  6
CONTINUOUS
 62
    7
 10
40.287147383899992
 20
249.9623104753
 11
40.262031870899989
 21
249.9645594376
  0
LINE
  8
_0-0_0
  6
CONTINUOUS
 62
    7
 10
40.262031870899989
 20
249.9645594376
 11
40.246818824099989
 21
249.96633079760002
  0
LINE
  8
_0-0_0
  6
CONTINUOUS
 62
    7
 10
40.246818824099989
 20
249.96633079760002
 11
40.24113202960001
 21
249.96767023090001
  0
LINE
  8
_0-0_0
  6
CONTINUOUS
 62
    7
 10
40.24113202960001
 20
249.96767023090001
 11
40.245413090999989
 21
249.96846372820002
  0
LINE
  8
_0-0_0
  6
CONTINUOUS
 62
    7
 10
40.245413090999989
 20
249.96846372820002
 11
40.259769876299998
 21
249.9687386411
  0
LINE
  8
_0-0_0
  6
CONTINUOUS
 62
    7
 10
40.259769876299998
 20
249.9687386411
 11
40.26128810199998
 21
249.96872117000001
  0
ARC
  8
_0-0_0
  6
CONTINUOUS
 62
    7
 10
40.971479270999993
 20
257.29573357520002
 40
7.3629588892687661
 50
264.47838066529999
 51
269.60479704459999
  0
LINE
  8
_0-0_0
  6
CONTINUOUS
 62
    7
 10
40.050110522199986
 20
244.9515766726
 11
40.051820127199989
 21
244.95102949940002
  0
LINE
  8
_0-0_0
  6
CONTINUOUS
 62
    7
 10
40.051820127199989
 20
244.95102949940002
 11
40.062878031999986
 21
244.94964183670001
  0
LINE
  8
_0-0_0
  6
CONTINUOUS
 62
    7
 10
40.062878031999986
 20
244.94964183670001
 11
40.081632926999987
 21
244.9479022635
  0
LINE
  8
_0-0_0
  6
CONTINUOUS
 62
    7
 10
40.081632926999987
 20
244.9479022635
 11
40.107455743299994
 21
244.94586315790002
  0
LINE
  8
_0-0_0
  6
CONTINUOUS
 62
    7
 10
40.107455743299994
 20
244.94586315790002
 11
40.13974910029998
 21
244.94357583380003
  0
LINE
  8
_0-0_0
  6
CONTINUOUS
 62
    7
 10
40.13974910029998
 20
244.94357583380003
 11
40.177493589499989
 21
244.9411098928
  0
LINE
  8
_0-0_0
  6
CONTINUOUS
 62
    7
 10
40.177493589499989
 20
244.9411098928
 11
40.251181307100012
 21
244.93670402470002
  0
LINE
  8
_0-0_0
  6
CONTINUOUS
 62
    7
 10
40.251181307100012
 20
244.93670402470002
 11
40.331546601399992
 21
244.9323424849
  0
LINE
  8
_0-0_0
  6
CONTINUOUS
 62
    7
 10
40.331546601399992
 20
244.9323424849
 11
40.379491191099987
 21
244.92993293320001
  0
LINE
  8
_0-0_0
  6
CONTINUOUS
 62
    7
 10
40.379491191099987
 20
244.92993293320001
 11
40.425880851399995
 21
244.9277434233
  0
LINE
  8
_0-0_0
  6
CONTINUOUS
 62
    7
 10
40.425880851399995
 20
244.9277434233
 11
40.469651601199985
 21
244.92582149700002
  0
LINE
  8
_0-0_0
  6
CONTINUOUS
 62
    7
 10
40.469651601199985
 20
244.92582149700002
 11
40.509550076300002
 21
244.92422457500001
  0
LINE
  8
_0-0_0
  6
CONTINUOUS
 62
    7
 10
40.509550076300002
 20
244.92422457500001
 11
40.544462582600005
 21
244.92299525850001
  0
LINE
  8
_0-0_0
  6
CONTINUOUS
 62
    7
 10
40.544462582600005
 20
244.92299525850001
 11
40.573324216999993
 21
244.92217391670002
  0
LINE
  8
_0-0_0
  6
CONTINUOUS
 62
    7
 10
40.573324216999993
 20
244.92217391670002
 11
40.595402240799984
 21
244.92177753690001
  0
LINE
  8
_0-0_0
  6
CONTINUOUS
 62
    7
 10
40.595402240799984
 20
244.92177753690001
 11
40.609941778599989
 21
244.9218231154
  0
LINE
  8
_0-0_0
  6
CONTINUOUS
 62
    7
 10
40.609941778599989
 20
244.9218231154
 11
40.616703837100005
 21
244.9223021688
  0
LINE
  8
_0-0_0
  6
CONTINUOUS
 62
    7
 10
40.616703837100005
 20
244.9223021688
 11
40.616681939999978
 21
244.92231701650002
  0
POINT
  8
_0-0_0
 62
    7
 10
49.919518364999988
 20
252.90336038560002
  0
POINT
  8
_0-0_0
 62
    7
 10
50.528705514199999
 20
240.43861204160001
  0
INSERT
  2
-001-_D
  8
_0-0_0
 10
-5.9000000000000057
 20
8.8000000000000114
 41
1
 42
1
 50
0
  0
ARC
  8
_0-0_0
  6
CONTINUOUS
 62
    7
 10
49.915322925799984
 20
212.21043544400001
 40
0.7908538681503353
 50
83.446764792700009
 51
88.55900990260001
  0
ARC
  8
_0-0_0
  6
CONTINUOUS
 62
    7
 10
46.5278124198
 20
215.12776439520002
 40
4.3953307150987104
 50
1.7223804119999999
 51
5.8879746026999999
  0
ARC
  8
_0-0_0
  6
CONTINUOUS
 62
    7
 10
46.331269688799978
 20
215.1243782745
 40
3.7518700150737172
 50
1.5980315153
 51
5.4495974032000003
  0
LINE
  8
_0-0_0
  6
CONTINUOUS
 62
    7
 10
50.894567271900002
 20
215.6188429515
 11
50.869981179999996
 21
215.74767698530002
  0
LINE
  8
_0-0_0
  6
CONTINUOUS
 62
    7
 10
50.869981179999996
 20
215.74767698530002
 11
50.845922316300005
 21
215.88396213430002
  0
LINE
  8
_0-0_0
  6
CONTINUOUS
 62
    7
 10
50.845922316300005
 20
215.88396213430002
 11
50.822645944999977
 21
216.0358007934
  0
LINE
  8
_0-0_0
  6
CONTINUOUS
 62
    7
 10
50.822645944999977
 20
216.0358007934
 11
50.8002516775
 21
216.20488649470002
  0
LINE
  8
_0-0_0
  6
CONTINUOUS
 62
    7
 10
50.8002516775
 20
216.20488649470002
 11
50.778685321300003
 21
216.38586572280002
  0
LINE
  8
_0-0_0
  6
CONTINUOUS
 62
    7
 10
50.778685321300003
 20
216.38586572280002
 11
50.757999568199978
 21
216.5773987435
  0
LINE
  8
_0-0_0
  6
CONTINUOUS
 62
    7
 10
50.757999568199978
 20
216.5773987435
 11
50.738232063099986
 21
216.77830005090001
  0
LINE
  8
_0-0_0
  6
CONTINUOUS
 62
    7
 10
50.738232063099986
 20
216.77830005090001
 11
50.71634131190001
 21
217.02262794540002
  0
LINE
  8
_0-0_0
  6
CONTINUOUS
 62
    7
 10
50.71634131190001
 20
217.02262794540002
 11
50.695706705799978
 21
217.27523383910003
  0
LINE
  8
_0-0_0
  6
CONTINUOUS
 62
    7
 10
50.695706705799978
 20
217.27523383910003
 11
50.676345191299987
 21
217.5339245861
  0
LINE
  8
_0-0_0
  6
CONTINUOUS
 62
    7
 10
50.676345191299987
 20
217.5339245861
 11
50.658435257000008
 21
217.79871705470001
  0
LINE
  8
_0-0_0
  6
CONTINUOUS
 62
    7
 10
50.658435257000008
 20
217.79871705470001
 11
50.641698972799986
 21
218.06576627480001
  0
LINE
  8
_0-0_0
  6
CONTINUOUS
 62
    7
 10
50.641698972799986
 20
218.06576627480001
 11
50.625729468099991
 21
218.33018946210001
  0
LINE
  8
_0-0_0
  6
CONTINUOUS
 62
    7
 10
50.045908672599978
 20
218.3171690156
 11
50.043123762699992
 21
218.05390619020002
  0
LINE
  8
_0-0_0
  6
CONTINUOUS
 62
    7
 10
50.043123762699992
 20
218.05390619020002
 11
50.040678462500011
 21
217.79438410750001
  0
LINE
  8
_0-0_0
  6
CONTINUOUS
 62
    7
 10
50.040678462500011
 20
217.79438410750001
 11
50.038912609100009
 21
217.5423363399
  0
LINE
  8
_0-0_0
  6
CONTINUOUS
 62
    7
 10
50.038912609100009
 20
217.5423363399
 11
50.038060729299985
 21
217.30060559600003
  0
LINE
  8
_0-0_0
  6
CONTINUOUS
 62
    7
 10
50.038060729299985
 20
217.30060559600003
 11
50.037921100700004
 21
217.06839874280001
  0
LINE
  8
_0-0_0
  6
CONTINUOUS
 62
    7
 10
50.037921100700004
 20
217.06839874280001
 11
50.038429984999993
 21
216.84626649830003
  0
LINE
  8
_0-0_0
  6
CONTINUOUS
 62
    7
 10
50.038429984999993
 20
216.84626649830003
 11
50.03957997469999
 21
216.63525966240002
  0
LINE
  8
_0-0_0
  6
CONTINUOUS
 62
    7
 10
50.03957997469999
 20
216.63525966240002
 11
50.04133949689998
 21
216.43615144570001
  0
LINE
  8
_0-0_0
  6
CONTINUOUS
 62
    7
 10
50.04133949689998
 20
216.43615144570001
 11
50.043665109100004
 21
216.24948358470002
  0
LINE
  8
_0-0_0
  6
CONTINUOUS
 62
    7
 10
50.043665109100004
 20
216.24948358470002
 11
50.046507811600009
 21
216.07549601400001
  0
LINE
  8
_0-0_0
  6
CONTINUOUS
 62
    7
 10
50.046507811600009
 20
216.07549601400001
 11
50.049841787899993
 21
215.91548030770002
  0
LINE
  8
_0-0_0
  6
CONTINUOUS
 62
    7
 10
50.049841787899993
 20
215.91548030770002
 11
50.053696338199984
 21
215.77315313280002
  0
LINE
  8
_0-0_0
  6
CONTINUOUS
 62
    7
 10
50.053696338199984
 20
215.77315313280002
 11
50.057925844899984
 21
215.64394459870002
  0
LINE
  8
_0-0_0
  6
CONTINUOUS
 62
    7
 10
50.057925844899984
 20
215.64394459870002
 11
50.062342514299985
 21
215.5212987303
  0
LINE
  8
_0-0_0
  6
CONTINUOUS
 62
    7
 10
50.625722978499994
 20
218.33020776910001
 11
50.620792801699992
 21
218.40645118610001
  0
LINE
  8
_0-0_0
  6
CONTINUOUS
 62
    7
 10
50.620792801699992
 20
218.40645118610001
 11
50.616278089699989
 21
218.46561392230001
  0
LINE
  8
_0-0_0
  6
CONTINUOUS
 62
    7
 10
50.616278089699989
 20
218.46561392230001
 11
50.612436855599981
 21
218.50930228820002
  0
LINE
  8
_0-0_0
  6
CONTINUOUS
 62
    7
 10
50.612436855599981
 20
218.50930228820002
 11
50.609171760999999
 21
218.54228994490001
  0
LINE
  8
_0-0_0
  6
CONTINUOUS
 62
    7
 10
50.609171760999999
 20
218.54228994490001
 11
50.607159105199997
 21
218.56090615440002
  0
LINE
  8
_0-0_0
  6
CONTINUOUS
 62
    7
 10
50.607159105199997
 20
218.56090615440002
 11
50.605197104899986
 21
218.57787164270002
  0
LINE
  8
_0-0_0
  6
CONTINUOUS
 62
    7
 10
50.605197104899986
 20
218.57787164270002
 11
50.602639038000007
 21
218.59831241840001
  0
LINE
  8
_0-0_0
  6
CONTINUOUS
 62
    7
 10
50.602639038000007
 20
218.59831241840001
 11
50.599383906699984
 21
218.62179341080002
  0
LINE
  8
_0-0_0
  6
CONTINUOUS
 62
    7
 10
50.599383906699984
 20
218.62179341080002
 11
50.595306860199997
 21
218.64772088020001
  0
LINE
  8
_0-0_0
  6
CONTINUOUS
 62
    7
 10
50.595306860199997
 20
218.64772088020001
 11
50.590286679099989
 21
218.67512705380003
  0
LINE
  8
_0-0_0
  6
CONTINUOUS
 62
    7
 10
50.590286679099989
 20
218.67512705380003
 11
50.584316437599995
 21
218.7019846453
  0
LINE
  8
_0-0_0
  6
CONTINUOUS
 62
    7
 10
50.584316437599995
 20
218.7019846453
 11
50.574166922800003
 21
218.73726807830002
  0
LINE
  8
_0-0_0
  6
CONTINUOUS
 62
    7
 10
50.574166922800003
 20
218.73726807830002
 11
50.560211681200002
 21
218.77277065710001
  0
LINE
  8
_0-0_0
  6
CONTINUOUS
 62
    7
 10
50.560211681200002
 20
218.77277065710001
 11
50.540796490399998
 21
218.80862687310002
  0
LINE
  8
_0-0_0
  6
CONTINUOUS
 62
    7
 10
50.540796490399998
 20
218.80862687310002
 11
50.513669279499993
 21
218.84490970520002
  0
LINE
  8
_0-0_0
  6
CONTINUOUS
 62
    7
 10
50.513669279499993
 20
218.84490970520002
 11
50.475521461999989
 21
218.88143753780002
  0
LINE
  8
_0-0_0
  6
CONTINUOUS
 62
    7
 10
50.475521461999989
 20
218.88143753780002
 11
50.424590036399991
 21
218.91346111480001
  0
LINE
  8
_0-0_0
  6
CONTINUOUS
 62
    7
 10
50.424590036399991
 20
218.91346111480001
 11
50.359921704399994
 21
218.9348225148
  0
LINE
  8
_0-0_0
  6
CONTINUOUS
 62
    7
 10
50.359921704399994
 20
218.9348225148
 11
50.282181695199995
 21
218.93836413870002
  0
ARC
  8
_0-0_0
  6
CONTINUOUS
 62
    7
 10
74.418933452999994
 20
218.39415098500001
 40
24.373142339584291
 50
179.46078941510001
 51
180.1809493337
  0
ARC
  8
_0-0_0
  6
CONTINUOUS
 62
    7
 10
-10.023521284899999
 20
217.02397856760001
 40
60.403651141753542
 50
1.8821923635
 51
2.5581173778999999
  0
ARC
  8
_0-0_0
  6
CONTINUOUS
 62
    7
 10
-26.529325448900011
 20
211.72296514890002
 40
76.867190669885588
 50
355.97827040150003
 51
357.09695787829997
  0
ARC
  8
_0-0_0
  6
CONTINUOUS
 62
    7
 10
154.5529183287
 20
211.97161186880001
 40
105.0113293475178
 50
179.4707125345
 51
183.07829896550001
  0
LINE
  8
_0-0_0
  6
CONTINUOUS
 62
    7
 10
50.319927482400004
 20
219.71998767950001
 11
50.116650808599985
 21
222.9455177115
  0
LINE
  8
_0-0_0
  6
CONTINUOUS
 62
    7
 10
49.806690085899987
 20
222.941839606
 11
49.803286545999981
 21
222.85507310970002
  0
ARC
  8
_0-0_0
  6
CONTINUOUS
 62
    7
 10
78.018658085200002
 20
218.86713479460002
 40
28.356062841411671
 50
180.34614654410001
 51
181.60673553070001
  0
ARC
  8
_0-0_0
  6
CONTINUOUS
 62
    7
 10
49.961617370999988
 20
222.94815149020002
 40
0.1550781250000311
 50
358.82057421539997
 51
0.0000000000000168
  0
ARC
  8
_0-0_0
  6
CONTINUOUS
 62
    7
 10
49.961617370999988
 20
222.94815149020002
 40
0.1550781250000322
 50
0
 51
182.53914664109999
  0
ARC
  8
_0-0_0
  6
CONTINUOUS
 62
    7
 10
49.732259452499989
 20
206.33468857280002
 40
0.0399999995888017
 50
183.8076565954
 51
270.00000935510002
  0
ARC
  8
_0-0_0
  6
CONTINUOUS
 62
    7
 10
50.109230336499991
 20
206.33468856570002
 40
0.0399999924382304
 50
269.99983041040002
 51
355.78365668380002
  0
ARC
  8
_0-0_0
  6
CONTINUOUS
 62
    7
 10
50.737844677599981
 20
206.3346885709
 40
0.0399999976344736
 50
269.99994214349999
 51
357.4950050809
  0
ARC
  8
_0-0_0
  6
CONTINUOUS
 62
    7
 10
50.343128914799991
 20
206.33468856940002
 40
0.0399999961658957
 50
183.71225622360001
 51
270.00008974719998
  0
LINE
  8
_0-0_0
  6
CONTINUOUS
 62
    7
 10
50.0908149423
 20
214.7880307012
 11
50.090990032099995
 21
214.73212631180002
  0
ARC
  8
_0-0_0
  6
CONTINUOUS
 62
    7
 10
241.2435048424
 20
215.35612906670002
 40
191.15293669462091
 50
180.53619984229999
 51
182.70567057839997
  0
ARC
  8
_0-0_0
  6
CONTINUOUS
 62
    7
 10
-142.47286859619999
 20
214.02553889890001
 40
193.40365727557099
 50
357.72050732679998
 51
0.226784057899994
  0
ARC
  8
_0-0_0
  6
CONTINUOUS
 62
    7
 10
37.596356700699999
 20
214.7729414257
 40
13.333700740587011
 50
0.0778226511
 51
2.0988537046000002
  0
ARC
  8
_0-0_0
  6
CONTINUOUS
 62
    7
 10
36.799371866599984
 20
214.75618575000001
 40
13.290710036187781
 50
0.1374415929
 51
2.0375950197000003
  0
LINE
  8
_0-0_0
  6
CONTINUOUS
 62
    7
 10
40.636374409899986
 20
212.9961024207
 11
40.636109530099986
 21
212.99605545920002
  0
LINE
  8
_0-0_0
  6
CONTINUOUS
 62
    7
 10
40.636109530099986
 20
212.99605545920002
 11
40.639285626199978
 21
212.99647131610001
  0
LINE
  8
_0-0_0
  6
CONTINUOUS
 62
    7
 10
40.639285626199978
 20
212.99647131610001
 11
40.647655635099994
 21
212.9973582847
  0
LINE
  8
_0-0_0
  6
CONTINUOUS
 62
    7
 10
40.647655635099994
 20
212.9973582847
 11
40.661935738500006
 21
212.99855273360001
  0
LINE
  8
_0-0_0
  6
CONTINUOUS
 62
    7
 10
40.661935738500006
 20
212.99855273360001
 11
40.682321569199985
 21
212.99986995080002
  0
LINE
  8
_0-0_0
  6
CONTINUOUS
 62
    7
 10
40.682321569199985
 20
212.99986995080002
 11
40.706018069199985
 21
213.00101689050001
  0
ARC
  8
_0-0_0
  6
CONTINUOUS
 62
    7
 10
44.490593683499981
 20
215.11345952230002
 40
3.9318226360652409
 50
174.64073522109999
 51
178.31036986359999
  0
ARC
  8
_0-0_0
  6
CONTINUOUS
 62
    7
 10
44.239533636700003
 20
215.1194368717
 40
4.5207325340012314
 50
174.16982507949999
 51
178.21981990580002
  0
LINE
  8
_0-0_0
  6
CONTINUOUS
 62
    7
 10
40.579797752800005
 20
215.5212987303
 11
40.584214422199977
 21
215.64394459870002
  0
LINE
  8
_0-0_0
  6
CONTINUOUS
 62
    7
 10
40.584214422199977
 20
215.64394459870002
 11
40.588443928999993
 21
215.77315313280002
  0
LINE
  8
_0-0_0
  6
CONTINUOUS
 62
    7
 10
40.588443928999993
 20
215.77315313280002
 11
40.592298479199997
 21
215.91548030770002
  0
LINE
  8
_0-0_0
  6
CONTINUOUS
 62
    7
 10
40.592298479199997
 20
215.91548030770002
 11
40.595632455599997
 21
216.07549601400001
  0
LINE
  8
_0-0_0
  6
CONTINUOUS
 62
    7
 10
40.595632455599997
 20
216.07549601400001
 11
40.598475157999985
 21
216.24948358470002
  0
LINE
  8
_0-0_0
  6
CONTINUOUS
 62
    7
 10
40.598475157999985
 20
216.24948358470002
 11
40.60080077020001
 21
216.43615144570001
  0
LINE
  8
_0-0_0
  6
CONTINUOUS
 62
    7
 10
40.60080077020001
 20
216.43615144570001
 11
40.602560292499987
 21
216.63525966240002
  0
LINE
  8
_0-0_0
  6
CONTINUOUS
 62
    7
 10
40.602560292499987
 20
216.63525966240002
 11
40.603710282199984
 21
216.84626649830003
  0
LINE
  8
_0-0_0
  6
CONTINUOUS
 62
    7
 10
40.603710282199984
 20
216.84626649830003
 11
40.604219166399986
 21
217.06839874280001
  0
LINE
  8
_0-0_0
  6
CONTINUOUS
 62
    7
 10
40.604219166399986
 20
217.06839874280001
 11
40.604079537800004
 21
217.30060559600003
  0
LINE
  8
_0-0_0
  6
CONTINUOUS
 62
    7
 10
40.604079537800004
 20
217.30060559600003
 11
40.60322765799998
 21
217.5423363399
  0
LINE
  8
_0-0_0
  6
CONTINUOUS
 62
    7
 10
40.60322765799998
 20
217.5423363399
 11
40.601461804699994
 21
217.79438410750001
  0
LINE
  8
_0-0_0
  6
CONTINUOUS
 62
    7
 10
40.601461804699994
 20
217.79438410750001
 11
40.599016504399998
 21
218.05390619020002
  0
LINE
  8
_0-0_0
  6
CONTINUOUS
 62
    7
 10
40.599016504399998
 20
218.05390619020002
 11
40.596231594599999
 21
218.3171690156
  0
LINE
  8
_0-0_0
  6
CONTINUOUS
 62
    7
 10
40.016410798999999
 20
218.33018946210001
 11
40.002760813699979
 21
218.10380702160001
  0
LINE
  8
_0-0_0
  6
CONTINUOUS
 62
    7
 10
40.002760813699979
 20
218.10380702160001
 11
39.988587704599979
 21
217.8750132161
  0
LINE
  8
_0-0_0
  6
CONTINUOUS
 62
    7
 10
39.988587704599979
 20
217.8750132161
 11
39.97364293779998
 21
217.64678836920001
  0
LINE
  8
_0-0_0
  6
CONTINUOUS
 62
    7
 10
39.97364293779998
 20
217.64678836920001
 11
39.957664388899985
 21
217.4223313018
  0
LINE
  8
_0-0_0
  6
CONTINUOUS
 62
    7
 10
39.957664388899985
 20
217.4223313018
 11
39.9406653291
 21
217.20236890310002
  0
LINE
  8
_0-0_0
  6
CONTINUOUS
 62
    7
 10
39.9406653291
 20
217.20236890310002
 11
39.922748904499997
 21
216.98715485640002
  0
LINE
  8
_0-0_0
  6
CONTINUOUS
 62
    7
 10
39.922748904499997
 20
216.98715485640002
 11
39.903908204000004
 21
216.77830005090001
  0
LINE
  8
_0-0_0
  6
CONTINUOUS
 62
    7
 10
39.903908204000004
 20
216.77830005090001
 11
39.886662152700012
 21
216.6020276058
  0
LINE
  8
_0-0_0
  6
CONTINUOUS
 62
    7
 10
39.886662152700012
 20
216.6020276058
 11
39.868711071000007
 21
216.43280030330001
  0
LINE
  8
_0-0_0
  6
CONTINUOUS
 62
    7
 10
39.868711071000007
 20
216.43280030330001
 11
39.85007554660001
 21
216.27145056340001
  0
LINE
  8
_0-0_0
  6
CONTINUOUS
 62
    7
 10
39.85007554660001
 20
216.27145056340001
 11
39.830793720499997
 21
216.11868343890001
  0
LINE
  8
_0-0_0
  6
CONTINUOUS
 62
    7
 10
39.830793720499997
 20
216.11868343890001
 11
39.810872049000011
 21
215.97658087820002
  0
LINE
  8
_0-0_0
  6
CONTINUOUS
 62
    7
 10
39.810872049000011
 20
215.97658087820002
 11
39.790267132899999
 21
215.84873103130002
  0
LINE
  8
_0-0_0
  6
CONTINUOUS
 62
    7
 10
39.790267132899999
 20
215.84873103130002
 11
39.769109110499983
 21
215.73134249100002
  0
LINE
  8
_0-0_0
  6
CONTINUOUS
 62
    7
 10
39.769109110499983
 20
215.73134249100002
 11
39.747572995199988
 21
215.6188429515
  0
LINE
  8
_0-0_0
  6
CONTINUOUS
 62
    7
 10
40.596227605100012
 20
218.31717678950002
 11
40.59494323909999
 21
218.41003406640002
  0
LINE
  8
_0-0_0
  6
CONTINUOUS
 62
    7
 10
40.59494323909999
 20
218.41003406640002
 11
40.594533046799995
 21
218.48077773880001
  0
LINE
  8
_0-0_0
  6
CONTINUOUS
 62
    7
 10
40.594533046799995
 20
218.48077773880001
 11
40.594605225799995
 21
218.5318665094
  0
LINE
  8
_0-0_0
  6
CONTINUOUS
 62
    7
 10
40.594605225799995
 20
218.5318665094
 11
40.594887329399995
 21
218.56685708820001
  0
LINE
  8
_0-0_0
  6
CONTINUOUS
 62
    7
 10
40.594887329399995
 20
218.56685708820001
 11
40.595142866000003
 21
218.59310750260002
  0
LINE
  8
_0-0_0
  6
CONTINUOUS
 62
    7
 10
40.595142866000003
 20
218.59310750260002
 11
40.594422551999997
 21
218.60788611300001
  0
LINE
  8
_0-0_0
  6
CONTINUOUS
 62
    7
 10
40.594422551999997
 20
218.60788611300001
 11
40.593466633199995
 21
218.6078810546
  0
LINE
  8
_0-0_0
  6
CONTINUOUS
 62
    7
 10
40.359958571899995
 20
218.93836413870002
 11
40.282218562799983
 21
218.9348225148
  0
LINE
  8
_0-0_0
  6
CONTINUOUS
 62
    7
 10
40.282218562799983
 20
218.9348225148
 11
40.217550230699999
 21
218.91346111480001
  0
LINE
  8
_0-0_0
  6
CONTINUOUS
 62
    7
 10
40.217550230699999
 20
218.91346111480001
 11
40.166618805100001
 21
218.88143753780002
  0
LINE
  8
_0-0_0
  6
CONTINUOUS
 62
    7
 10
40.166618805100001
 20
218.88143753780002
 11
40.128470987599997
 21
218.84490970520002
  0
LINE
  8
_0-0_0
  6
CONTINUOUS
 62
    7
 10
40.128470987599997
 20
218.84490970520002
 11
40.101343776799979
 21
218.80862687310002
  0
LINE
  8
_0-0_0
  6
CONTINUOUS
 62
    7
 10
40.101343776799979
 20
218.80862687310002
 11
40.081928585899988
 21
218.77277065710001
  0
LINE
  8
_0-0_0
  6
CONTINUOUS
 62
    7
 10
40.081928585899988
 20
218.77277065710001
 11
40.067973344400002
 21
218.73726807830002
  0
LINE
  8
_0-0_0
  6
CONTINUOUS
 62
    7
 10
40.067973344400002
 20
218.73726807830002
 11
40.057823829499995
 21
218.7019846453
  0
LINE
  8
_0-0_0
  6
CONTINUOUS
 62
    7
 10
40.057823829499995
 20
218.7019846453
 11
40.0478652603
 21
218.65373862300001
  0
LINE
  8
_0-0_0
  6
CONTINUOUS
 62
    7
 10
40.0478652603
 20
218.65373862300001
 11
40.040854986099987
 21
218.60840415470003
  0
LINE
  8
_0-0_0
  6
CONTINUOUS
 62
    7
 10
40.040854986099987
 20
218.60840415470003
 11
40.036227095899989
 21
218.57181248010002
  0
LINE
  8
_0-0_0
  6
CONTINUOUS
 62
    7
 10
40.036227095899989
 20
218.57181248010002
 11
40.034618282499991
 21
218.557641574
  0
LINE
  8
_0-0_0
  6
CONTINUOUS
 62
    7
 10
40.034618282499991
 20
218.557641574
 11
40.032667086199979
 21
218.53939302060002
  0
LINE
  8
_0-0_0
  6
CONTINUOUS
 62
    7
 10
40.032667086199979
 20
218.53939302060002
 11
40.029703411599996
 21
218.50930228820002
  0
LINE
  8
_0-0_0
  6
CONTINUOUS
 62
    7
 10
40.029703411599996
 20
218.50930228820002
 11
40.025862177499988
 21
218.46561392230001
  0
LINE
  8
_0-0_0
  6
CONTINUOUS
 62
    7
 10
40.025862177499988
 20
218.46561392230001
 11
40.021347465399998
 21
218.40645118610001
  0
LINE
  8
_0-0_0
  6
CONTINUOUS
 62
    7
 10
40.021347465399998
 20
218.40645118610001
 11
40.016417288599996
 21
218.33020776910001
  0
ARC
  8
_0-0_0
  6
CONTINUOUS
 62
    7
 10
100.66566155229999
 20
217.02397856760001
 40
60.403651141974343
 50
177.4418826221
 51
178.1178076365
  0
ARC
  8
_0-0_0
  6
CONTINUOUS
 62
    7
 10
-64.608982162699988
 20
211.9878680324
 40
105.70963298232439
 50
356.93322213739998
 51
0.5169800822999818
  0
ARC
  8
_0-0_0
  6
CONTINUOUS
 62
    7
 10
116.35473842579999
 20
211.68892705360003
 40
76.049853219234038
 50
182.90680996250001
 51
184.03930003280001
  0
LINE
  8
_0-0_0
  6
CONTINUOUS
 62
    7
 10
40.838853721100008
 20
222.85507310970002
 11
40.835450181200002
 21
222.941839606
  0
LINE
  8
_0-0_0
  6
CONTINUOUS
 62
    7
 10
40.525489458500005
 20
222.9455177115
 11
40.322212784699985
 21
219.71998767950001
  0
ARC
  8
_0-0_0
  6
CONTINUOUS
 62
    7
 10
12.623482181899988
 20
218.86713479460002
 40
28.356062841467661
 50
358.39326446929999
 51
359.65385345589999
  0
ARC
  8
_0-0_0
  6
CONTINUOUS
 62
    7
 10
40.680522896100001
 20
222.94815149020002
 40
0.1550781250000241
 50
357.46085335890001
 51
0
  0
ARC
  8
_0-0_0
  6
CONTINUOUS
 62
    7
 10
40.680522896100001
 20
222.94815149020002
 40
0.1550781250000311
 50
0
 51
181.17942578469999
  0
ARC
  8
_0-0_0
  6
CONTINUOUS
 62
    7
 10
40.909880814699989
 20
206.33468857280002
 40
0.0399999995842114
 50
269.99999064140002
 51
355.88676806699999
  0
ARC
  8
_0-0_0
  6
CONTINUOUS
 62
    7
 10
40.532909930599999
 20
206.3346885656
 40
0.0399999923968199
 50
184.3670556212
 51
270.00016962170002
  0
ARC
  8
_0-0_0
  6
CONTINUOUS
 62
    7
 10
39.904295589500009
 20
206.3346885709
 40
0.0399999976423253
 50
182.41809920860004
 51
270.00005785029998
  0
ARC
  8
_0-0_0
  6
CONTINUOUS
 62
    7
 10
40.299011352299999
 20
206.3346885695
 40
0.0399999962079313
 50
269.99991028570003
 51
356.58611318340002
  0
ARC
  8
_0-0_0
  6
CONTINUOUS
 62
    7
 10
231.6132730889
 20
214.0082273182
 40
191.90200319482199
 50
179.7662728112
 51
182.2921605331
  0
ARC
  8
_0-0_0
  6
CONTINUOUS
 62
    7
 10
-152.18143336679998
 20
215.38680836880002
 40
192.7331213195462
 50
357.30739186570003
 51
359.4590570208
  0
LINE
  8
_0-0_0
  6
CONTINUOUS
 62
    7
 10
40.551097446999989
 20
214.73213051180002
 11
40.551325327399979
 21
214.78803141430001
  0
ARC
  8
_0-0_0
  6
CONTINUOUS
 62
    7
 10
53.842768400500006
 20
214.75618575000001
 40
13.290710036150429
 50
177.96240498020003
 51
179.86255840710004
  0
ARC
  8
_0-0_0
  6
CONTINUOUS
 62
    7
 10
53.784107579199997
 20
214.75887565570002
 40
14.07204924030939
 50
177.9539986005
 51
179.86899033309999
  0
ARC
  8
_0-0_0
  6
CONTINUOUS
 62
    7
 10
45.340268203199997
 20
262.5651829976
 40
48.054281319794313
 50
266.58915920099997
 51
269.97710987729999
  0
LINE
  8
_0-0_0
  6
CONTINUOUS
 62
    7
 10
40.820800732000009
 20
214.71067195290001
 11
40.550295489199982
 21
214.73219431840002
  0
LINE
  8
_0-0_0
  6
CONTINUOUS
 62
    7
 10
50.091844777999995
 20
214.73219431840002
 11
49.82133953509998
 21
214.71067195290001
  0
ARC
  8
_0-0_0
  6
CONTINUOUS
 62
    7
 10
45.301872063899992
 20
262.5651829976
 40
48.054281319775967
 50
270.02289012270001
 51
273.41084079900003
  0
ARC
  8
_0-0_0
  6
CONTINUOUS
 62
    7
 10
49.711009314400002
 20
213.04639478550001
 40
0.1049307051412874
 50
271.97086771490001
 51
6.4435777455000363
  0
LINE
  8
_0-0_0
  6
CONTINUOUS
 62
    7
 10
45.321068562299985
 20
212.95641031220001
 11
47.538910474799991
 21
212.9483661834
  0
LINE
  8
_0-0_0
  6
CONTINUOUS
 62
    7
 10
47.538910474799991
 20
212.9483661834
 11
49.714656865800009
 21
212.94111046310002
  0
LINE
  8
_0-0_0
  6
CONTINUOUS
 62
    7
 10
49.592988626199997
 20
222.84785221850001
 11
49.513031221900007
 21
222.8443608501
  0
LINE
  8
_0-0_0
  6
CONTINUOUS
 62
    7
 10
49.513031221900007
 20
222.8443608501
 11
49.36248493170001
 21
222.83729006370001
  0
LINE
  8
_0-0_0
  6
CONTINUOUS
 62
    7
 10
49.36248493170001
 20
222.83729006370001
 11
49.231732223099982
 21
222.83056985270002
  0
LINE
  8
_0-0_0
  6
CONTINUOUS
 62
    7
 10
49.231732223099982
 20
222.83056985270002
 11
49.1211010886
 21
222.82434610710001
  0
LINE
  8
_0-0_0
  6
CONTINUOUS
 62
    7
 10
49.1211010886
 20
222.82434610710001
 11
49.027719825799977
 21
222.81864896600001
  0
LINE
  8
_0-0_0
  6
CONTINUOUS
 62
    7
 10
49.027719825799977
 20
222.81864896600001
 11
48.944120805799997
 21
222.81317808850002
  0
LINE
  8
_0-0_0
  6
CONTINUOUS
 62
    7
 10
48.944120805799997
 20
222.81317808850002
 11
48.869966395199981
 21
222.80801020370001
  0
LINE
  8
_0-0_0
  6
CONTINUOUS
 62
    7
 10
48.869966395199981
 20
222.80801020370001
 11
48.79539210370001
 21
222.8024935981
  0
LINE
  8
_0-0_0
  6
CONTINUOUS
 62
    7
 10
48.79539210370001
 20
222.8024935981
 11
48.733655621299988
 21
222.79766797580001
  0
LINE
  8
_0-0_0
  6
CONTINUOUS
 62
    7
 10
48.733655621299988
 20
222.79766797580001
 11
48.671760784500009
 21
222.79257840330001
  0
LINE
  8
_0-0_0
  6
CONTINUOUS
 62
    7
 10
48.671760784500009
 20
222.79257840330001
 11
48.58995389719999
 21
222.7854585293
  0
LINE
  8
_0-0_0
  6
CONTINUOUS
 62
    7
 10
48.58995389719999
 20
222.7854585293
 11
48.488211890900004
 21
222.7759686734
  0
LINE
  8
_0-0_0
  6
CONTINUOUS
 62
    7
 10
48.488211890900004
 20
222.7759686734
 11
48.366828591900003
 21
222.76370146570002
  0
LINE
  8
_0-0_0
  6
CONTINUOUS
 62
    7
 10
48.366828591900003
 20
222.76370146570002
 11
48.208121729399977
 21
222.7473935104
  0
LINE
  8
_0-0_0
  6
CONTINUOUS
 62
    7
 10
48.208121729399977
 20
222.7473935104
 11
48.023673900900008
 21
222.72973787330002
  0
LINE
  8
_0-0_0
  6
CONTINUOUS
 62
    7
 10
48.023673900900008
 20
222.72973787330002
 11
47.813175182999998
 21
222.71127386080002
  0
LINE
  8
_0-0_0
  6
CONTINUOUS
 62
    7
 10
47.813175182999998
 20
222.71127386080002
 11
47.576356260699981
 21
222.69261602190002
  0
LINE
  8
_0-0_0
  6
CONTINUOUS
 62
    7
 10
47.576356260699981
 20
222.69261602190002
 11
47.312970493299986
 21
222.67445277000002
  0
LINE
  8
_0-0_0
  6
CONTINUOUS
 62
    7
 10
47.312970493299986
 20
222.67445277000002
 11
47.022813008500009
 21
222.6575468007
  0
LINE
  8
_0-0_0
  6
CONTINUOUS
 62
    7
 10
47.022813008500009
 20
222.6575468007
 11
46.775955673400006
 21
222.64568845830001
  0
LINE
  8
_0-0_0
  6
CONTINUOUS
 62
    7
 10
46.775955673400006
 20
222.64568845830001
 11
46.512448854599995
 21
222.63556054760002
  0
LINE
  8
_0-0_0
  6
CONTINUOUS
 62
    7
 10
46.512448854599995
 20
222.63556054760002
 11
46.232300111399979
 21
222.62763063220001
  0
LINE
  8
_0-0_0
  6
CONTINUOUS
 62
    7
 10
46.232300111399979
 20
222.62763063220001
 11
45.935565279499997
 21
222.62239524380001
  0
LINE
  8
_0-0_0
  6
CONTINUOUS
 62
    7
 10
45.935565279499997
 20
222.62239524380001
 11
45.622356972599988
 21
222.62038004210001
  0
LINE
  8
_0-0_0
  6
CONTINUOUS
 62
    7
 10
45.622356972599988
 20
222.62038004210001
 11
45.321078480199986
 21
222.62197560920001
  0
ARC
  8
_0-0_0
  6
CONTINUOUS
 62
    7
 10
49.597785035100003
 20
222.73175632090002
 40
0.1154608741463034
 50
39.814366175899998
 51
92.639508484400011
  0
LINE
  8
_0-0_0
  6
CONTINUOUS
 62
    7
 10
49.689272717499989
 20
218.87228540640001
 11
49.689330003000009
 21
218.87500119700002
  0
LINE
  8
_0-0_0
  6
CONTINUOUS
 62
    7
 10
49.689330003000009
 20
218.87500119700002
 11
49.690659824199997
 21
218.92614077990001
  0
LINE
  8
_0-0_0
  6
CONTINUOUS
 62
    7
 10
49.690659757499986
 20
218.92613912820002
 11
49.7412929507
 21
220.65002112760001
  0
LINE
  8
_0-0_0
  6
CONTINUOUS
 62
    7
 10
49.7412929507
 20
220.65002112760001
 11
49.800728053699999
 21
222.67343873800002
  0
LINE
  8
_0-0_0
  6
CONTINUOUS
 62
    7
 10
49.66090370469999
 20
222.6804410247
 11
49.659968132199992
 21
222.6485880733
  0
ARC
  8
_0-0_0
  6
CONTINUOUS
 62
    7
 10
49.636881540499985
 20
218.72833810020001
 40
0.0487745955908963
 50
269.56643636609999
 51
302.59446385040002
  0
LINE
  8
_0-0_0
  6
CONTINUOUS
 62
    7
 10
49.800728528099995
 20
222.67345085090002
 11
49.803615667799988
 21
222.71223414010001
  0
LINE
  8
_0-0_0
  6
CONTINUOUS
 62
    7
 10
49.803615667799988
 20
222.71223414010001
 11
49.806060150199983
 21
222.72575801690002
  0
LINE
  8
_0-0_0
  6
CONTINUOUS
 62
    7
 10
49.803465456999987
 20
222.8596340892
 11
49.793106670599997
 21
222.86409023020002
  0
LINE
  8
_0-0_0
  6
CONTINUOUS
 62
    7
 10
49.793106670599997
 20
222.86409023020002
 11
49.771420656299995
 21
222.86683649850002
  0
LINE
  8
_0-0_0
  6
CONTINUOUS
 62
    7
 10
49.771420656299995
 20
222.86683649850002
 11
49.74959292059998
 21
222.86387609350001
  0
LINE
  8
_0-0_0
  6
CONTINUOUS
 62
    7
 10
49.74959292059998
 20
222.86387609350001
 11
49.725960580199995
 21
222.85336638540002
  0
LINE
  8
_0-0_0
  6
CONTINUOUS
 62
    7
 10
49.725960580199995
 20
222.85336638540002
 11
49.705158414700009
 21
222.83554961270002
  0
LINE
  8
_0-0_0
  6
CONTINUOUS
 62
    7
 10
49.705158414700009
 20
222.83554961270002
 11
49.6904253971
 21
222.81469330140001
  0
LINE
  8
_0-0_0
  6
CONTINUOUS
 62
    7
 10
49.6904253971
 20
222.81469330140001
 11
49.677707544599997
 21
222.78570921530002
  0
LINE
  8
_0-0_0
  6
CONTINUOUS
 62
    7
 10
49.677707544599997
 20
222.78570921530002
 11
49.666786393599978
 21
222.74159943110001
  0
LINE
  8
_0-0_0
  6
CONTINUOUS
 62
    7
 10
49.666786393599978
 20
222.74159943110001
 11
49.662635301199998
 21
222.70938193770002
  0
LINE
  8
_0-0_0
  6
CONTINUOUS
 62
    7
 10
49.662635301199998
 20
222.70938193770002
 11
49.661577347399998
 21
222.69528958660001
  0
LINE
  8
_0-0_0
  6
CONTINUOUS
 62
    7
 10
49.661577347399998
 20
222.69528958660001
 11
49.66090381319998
 21
222.68044368000002
  0
LINE
  8
_0-0_0
  6
CONTINUOUS
 62
    7
 10
49.77628175389998
 20
215.283080375
 11
49.636396727299996
 21
218.68237730800001
  0
ARC
  8
_0-0_0
  6
CONTINUOUS
 62
    7
 10
40.929402975100004
 20
213.04519815840001
 40
0.1033847699366451
 50
172.79167664840003
 51
268.93584583149999
  0
LINE
  8
_0-0_0
  6
CONTINUOUS
 62
    7
 10
40.92748340129998
 20
212.94111046310002
 11
43.103229792399986
 21
212.9483661834
  0
LINE
  8
_0-0_0
  6
CONTINUOUS
 62
    7
 10
43.103229792399986
 20
212.9483661834
 11
45.321071704899992
 21
212.95641031220001
  0
LINE
  8
_0-0_0
  6
CONTINUOUS
 62
    7
 10
45.321062182999981
 20
222.62198372540001
 11
45.0045990335
 21
222.6203985187
  0
LINE
  8
_0-0_0
  6
CONTINUOUS
 62
    7
 10
45.0045990335
 20
222.6203985187
 11
44.678150155299988
 21
222.62276505010001
  0
LINE
  8
_0-0_0
  6
CONTINUOUS
 62
    7
 10
44.678150155299988
 20
222.62276505010001
 11
44.370130537899996
 21
222.62859169240002
  0
LINE
  8
_0-0_0
  6
CONTINUOUS
 62
    7
 10
44.370130537899996
 20
222.62859169240002
 11
44.080652123199997
 21
222.63726768870001
  0
LINE
  8
_0-0_0
  6
CONTINUOUS
 62
    7
 10
44.080652123199997
 20
222.63726768870001
 11
43.809759992799997
 21
222.64821906
  0
LINE
  8
_0-0_0
  6
CONTINUOUS
 62
    7
 10
43.809759992799997
 20
222.64821906
 11
43.557443339700001
 21
222.66090827780002
  0
LINE
  8
_0-0_0
  6
CONTINUOUS
 62
    7
 10
43.557443339700001
 20
222.66090827780002
 11
43.323645729499987
 21
222.67483395470001
  0
LINE
  8
_0-0_0
  6
CONTINUOUS
 62
    7
 10
43.323645729499987
 20
222.67483395470001
 11
43.087746597700004
 21
222.69102575090002
  0
LINE
  8
_0-0_0
  6
CONTINUOUS
 62
    7
 10
43.087746597700004
 20
222.69102575090002
 11
42.873982467699989
 21
222.7075811766
  0
LINE
  8
_0-0_0
  6
CONTINUOUS
 62
    7
 10
42.873982467699989
 20
222.7075811766
 11
42.682166093299998
 21
222.7239819664
  0
LINE
  8
_0-0_0
  6
CONTINUOUS
 62
    7
 10
42.682166093299998
 20
222.7239819664
 11
42.512095473599999
 21
222.7397611458
  0
LINE
  8
_0-0_0
  6
CONTINUOUS
 62
    7
 10
42.512095473599999
 20
222.7397611458
 11
42.363564624399999
 21
222.75450268440002
  0
LINE
  8
_0-0_0
  6
CONTINUOUS
 62
    7
 10
42.363564624399999
 20
222.75450268440002
 11
42.242305692299993
 21
222.7671196487
  0
LINE
  8
_0-0_0
  6
CONTINUOUS
 62
    7
 10
42.242305692299993
 20
222.7671196487
 11
42.137391920900001
 21
222.7775192261
  0
LINE
  8
_0-0_0
  6
CONTINUOUS
 62
    7
 10
42.137391920900001
 20
222.7775192261
 11
42.037871648899994
 21
222.78667909400002
  0
LINE
  8
_0-0_0
  6
CONTINUOUS
 62
    7
 10
42.037871648899994
 20
222.78667909400002
 11
41.941689265399987
 21
222.79490453580001
  0
LINE
  8
_0-0_0
  6
CONTINUOUS
 62
    7
 10
41.941689265399987
 20
222.79490453580001
 11
41.848932725299989
 21
222.80227767990002
  0
LINE
  8
_0-0_0
  6
CONTINUOUS
 62
    7
 10
41.848932725299989
 20
222.80227767990002
 11
41.759677479999993
 21
222.80887843830001
  0
LINE
  8
_0-0_0
  6
CONTINUOUS
 62
    7
 10
41.759677479999993
 20
222.80887843830001
 11
41.695072385199978
 21
222.813368561
  0
LINE
  8
_0-0_0
  6
CONTINUOUS
 62
    7
 10
41.695072385199978
 20
222.813368561
 11
41.632494230399999
 21
222.81749880500001
  0
LINE
  8
_0-0_0
  6
CONTINUOUS
 62
    7
 10
41.632494230399999
 20
222.81749880500001
 11
41.562256481399999
 21
222.8218847137
  0
LINE
  8
_0-0_0
  6
CONTINUOUS
 62
    7
 10
41.562256481399999
 20
222.8218847137
 11
41.47506423279998
 21
222.82699100550002
  0
LINE
  8
_0-0_0
  6
CONTINUOUS
 62
    7
 10
41.47506423279998
 20
222.82699100550002
 11
41.370967260599997
 21
222.83265134760001
  0
LINE
  8
_0-0_0
  6
CONTINUOUS
 62
    7
 10
41.370967260599997
 20
222.83265134760001
 11
41.250103994
 21
222.83871457890001
  0
LINE
  8
_0-0_0
  6
CONTINUOUS
 62
    7
 10
41.250103994
 20
222.83871457890001
 11
41.112743760799987
 21
222.84508918840001
  0
LINE
  8
_0-0_0
  6
CONTINUOUS
 62
    7
 10
41.112743760799987
 20
222.84508918840001
 11
41.049081423199993
 21
222.84786332690001
  0
ARC
  8
_0-0_0
  6
CONTINUOUS
 62
    7
 10
41.045274070999994
 20
222.73004525660002
 40
0.1171762566386581
 50
87.864920429600005
 51
139.8520964027
  0
LINE
  8
_0-0_0
  6
CONTINUOUS
 62
    7
 10
40.951480442899992
 20
218.92614077990001
 11
40.952810264199996
 21
218.87500119700002
  0
LINE
  8
_0-0_0
  6
CONTINUOUS
 62
    7
 10
40.952810264199996
 20
218.87500119700002
 11
40.952867549600001
 21
218.87228540640001
  0
LINE
  8
_0-0_0
  6
CONTINUOUS
 62
    7
 10
40.98216805269999
 20
222.64872694050001
 11
40.981236562399999
 21
222.6804410247
  0
LINE
  8
_0-0_0
  6
CONTINUOUS
 62
    7
 10
40.841412213399991
 20
222.67343873800002
 11
40.898709438999987
 21
220.72281499340002
  0
LINE
  8
_0-0_0
  6
CONTINUOUS
 62
    7
 10
40.898709438999987
 20
220.72281499340002
 11
40.951480509600003
 21
218.92613912820002
  0
ARC
  8
_0-0_0
  6
CONTINUOUS
 62
    7
 10
41.004736230999981
 20
218.72748374400001
 40
0.0479812866360418
 50
237.53854308160001
 51
271.06205177940001
  0
LINE
  8
_0-0_0
  6
CONTINUOUS
 62
    7
 10
40.98123645390001
 20
222.68044368000002
 11
40.980310806700004
 21
222.69920959750002
  0
LINE
  8
_0-0_0
  6
CONTINUOUS
 62
    7
 10
40.980310806700004
 20
222.69920959750002
 11
40.978780382299988
 21
222.71673576590001
  0
LINE
  8
_0-0_0
  6
CONTINUOUS
 62
    7
 10
40.978780382299988
 20
222.71673576590001
 11
40.975353873500012
 21
222.74159943110001
  0
LINE
  8
_0-0_0
  6
CONTINUOUS
 62
    7
 10
40.975353873500012
 20
222.74159943110001
 11
40.964432722499993
 21
222.78570921530002
  0
LINE
  8
_0-0_0
  6
CONTINUOUS
 62
    7
 10
40.964432722499993
 20
222.78570921530002
 11
40.951714869999989
 21
222.81469330140001
  0
LINE
  8
_0-0_0
  6
CONTINUOUS
 62
    7
 10
40.951714869999989
 20
222.81469330140001
 11
40.936981852399981
 21
222.83554961270002
  0
LINE
  8
_0-0_0
  6
CONTINUOUS
 62
    7
 10
40.936981852399981
 20
222.83554961270002
 11
40.91617968700001
 21
222.85336638540002
  0
LINE
  8
_0-0_0
  6
CONTINUOUS
 62
    7
 10
40.91617968700001
 20
222.85336638540002
 11
40.89254734650001
 21
222.86387609350001
  0
LINE
  8
_0-0_0
  6
CONTINUOUS
 62
    7
 10
40.89254734650001
 20
222.86387609350001
 11
40.870719610799995
 21
222.86683649850002
  0
LINE
  8
_0-0_0
  6
CONTINUOUS
 62
    7
 10
40.870719610799995
 20
222.86683649850002
 11
40.849033596499993
 21
222.86409023020002
  0
LINE
  8
_0-0_0
  6
CONTINUOUS
 62
    7
 10
40.849033596499993
 20
222.86409023020002
 11
40.838674810100002
 21
222.8596340892
  0
LINE
  8
_0-0_0
  6
CONTINUOUS
 62
    7
 10
40.836080116999995
 20
222.72575801690002
 11
40.838524599399989
 21
222.71223414010001
  0
LINE
  8
_0-0_0
  6
CONTINUOUS
 62
    7
 10
40.838524599399989
 20
222.71223414010001
 11
40.84141173910001
 21
222.67345085090002
  0
LINE
  8
_0-0_0
  6
CONTINUOUS
 62
    7
 10
41.005743539799994
 20
218.68237730800001
 11
40.86584397690001
 21
215.28272713280001
  0
ARC
  8
_0-0_0
  6
CONTINUOUS
 62
    7
 10
45.322026878900004
 20
284.3110555568
 40
69.164380993476087
 50
266.37444100110002
 51
273.62401997450002
  0
LINE
  8
_0-0_0
  6
CONTINUOUS
 62
    7
 10
40.563753002099986
 20
215.05756879560002
 11
40.56374911879999
 21
214.93643850000001
  0
LINE
  8
_0-0_0
  6
CONTINUOUS
 62
    7
 10
50.078391147199994
 20
214.93642123090001
 11
50.078387263899998
 21
215.05757953360001
  0
LINE
  8
_0-0_0
  6
CONTINUOUS
 62
    7
 10
50.065424732999986
 20
214.87907931250001
 11
50.077472064299997
 21
214.92281411550002
  0
LINE
  8
_0-0_0
  6
CONTINUOUS
 62
    7
 10
50.077472064299997
 20
214.92281411550002
 11
50.076928450999986
 21
214.93782335260002
  0
LINE
  8
_0-0_0
  6
CONTINUOUS
 62
    7
 10
40.565068575299989
 20
214.93779400470001
 11
40.564545996699991
 21
214.92396535340001
  0
LINE
  8
_0-0_0
  6
CONTINUOUS
 62
    7
 10
40.564545996699991
 20
214.92396535340001
 11
40.576921225999996
 21
214.87861287440001
  0
LINE
  8
_0-0_0
  6
CONTINUOUS
 62
    7
 10
50.076011104299994
 20
215.0598008963
 11
50.076556767400007
 21
215.06771351720002
  0
LINE
  8
_0-0_0
  6
CONTINUOUS
 62
    7
 10
50.076556767400007
 20
215.06771351720002
 11
50.072407506199994
 21
215.09579971170001
  0
LINE
  8
_0-0_0
  6
CONTINUOUS
 62
    7
 10
50.072407506199994
 20
215.09579971170001
 11
50.052365329899999
 21
215.1424359268
  0
LINE
  8
_0-0_0
  6
CONTINUOUS
 62
    7
 10
50.052365329899999
 20
215.1424359268
 11
50.025207351399985
 21
215.17747856850002
  0
LINE
  8
_0-0_0
  6
CONTINUOUS
 62
    7
 10
50.025207351399985
 20
215.17747856850002
 11
49.996884567699993
 21
215.2029573682
  0
LINE
  8
_0-0_0
  6
CONTINUOUS
 62
    7
 10
49.996884567699993
 20
215.2029573682
 11
49.962086596000006
 21
215.22625603980001
  0
LINE
  8
_0-0_0
  6
CONTINUOUS
 62
    7
 10
49.962086596000006
 20
215.22625603980001
 11
49.932433289500011
 21
215.2416094724
  0
LINE
  8
_0-0_0
  6
CONTINUOUS
 62
    7
 10
49.932433289500011
 20
215.2416094724
 11
49.904709733700003
 21
215.25325651560001
  0
LINE
  8
_0-0_0
  6
CONTINUOUS
 62
    7
 10
49.904709733700003
 20
215.25325651560001
 11
49.878333687000008
 21
215.2623553416
  0
LINE
  8
_0-0_0
  6
CONTINUOUS
 62
    7
 10
49.878333687000008
 20
215.2623553416
 11
49.85335110379998
 21
215.26941780280001
  0
LINE
  8
_0-0_0
  6
CONTINUOUS
 62
    7
 10
49.85335110379998
 20
215.26941780280001
 11
49.823846528499985
 21
215.27602834940001
  0
LINE
  8
_0-0_0
  6
CONTINUOUS
 62
    7
 10
49.823846528499985
 20
215.27602834940001
 11
49.777233215299987
 21
215.28303040680001
  0
LINE
  8
_0-0_0
  6
CONTINUOUS
 62
    7
 10
49.777233215299987
 20
215.28303040680001
 11
49.71232591979998
 21
215.28643916680002
  0
LINE
  8
_0-0_0
  6
CONTINUOUS
 62
    7
 10
49.71232591979998
 20
215.28643916680002
 11
49.688811815199983
 21
215.28481764810002
  0
LINE
  8
_0-0_0
  6
CONTINUOUS
 62
    7
 10
40.964966869600005
 20
215.2838180299
 11
40.925049929099998
 21
215.28642684980002
  0
LINE
  8
_0-0_0
  6
CONTINUOUS
 62
    7
 10
40.925049929099998
 20
215.28642684980002
 11
40.858434610100005
 21
215.28226412930002
  0
LINE
  8
_0-0_0
  6
CONTINUOUS
 62
    7
 10
40.858434610100005
 20
215.28226412930002
 11
40.813505494999987
 21
215.27498508740001
  0
LINE
  8
_0-0_0
  6
CONTINUOUS
 62
    7
 10
40.813505494999987
 20
215.27498508740001
 11
40.786286081699984
 21
215.2686353016
  0
LINE
  8
_0-0_0
  6
CONTINUOUS
 62
    7
 10
40.786286081699984
 20
215.2686353016
 11
40.758193595400002
 21
215.26037186490001
  0
LINE
  8
_0-0_0
  6
CONTINUOUS
 62
    7
 10
40.758193595400002
 20
215.26037186490001
 11
40.726042869299988
 21
215.24841544760002
  0
LINE
  8
_0-0_0
  6
CONTINUOUS
 62
    7
 10
40.726042869299988
 20
215.24841544760002
 11
40.6711309218
 21
215.220093104
  0
LINE
  8
_0-0_0
  6
CONTINUOUS
 62
    7
 10
40.6711309218
 20
215.220093104
 11
40.615594531799985
 21
215.174641245
  0
LINE
  8
_0-0_0
  6
CONTINUOUS
 62
    7
 10
40.615594531799985
 20
215.174641245
 11
40.592735218599984
 21
215.1456052142
  0
LINE
  8
_0-0_0
  6
CONTINUOUS
 62
    7
 10
40.592735218599984
 20
215.1456052142
 11
40.575448749499998
 21
215.11240144840002
  0
LINE
  8
_0-0_0
  6
CONTINUOUS
 62
    7
 10
40.575448749499998
 20
215.11240144840002
 11
40.566091203100001
 21
215.07597485420001
  0
LINE
  8
_0-0_0
  6
CONTINUOUS
 62
    7
 10
40.566091203100001
 20
215.07597485420001
 11
40.56676529020001
 21
215.05966712910001
  0
LINE
  8
_0-0_0
  6
CONTINUOUS
 62
    7
 10
50.001911047499988
 20
214.72503886890001
 11
50.066947147399986
 21
214.88266709690001
  0
LINE
  8
_0-0_0
  6
CONTINUOUS
 62
    7
 10
40.575193123600002
 20
214.8826670878
 11
40.640229222500011
 21
214.72503886870001
  0
LINE
  8
_0-0_0
  6
CONTINUOUS
 62
    7
 10
50.453364459200003
 20
218.94231294230002
 11
50.374427787999991
 21
218.98912250060002
  0
LINE
  8
_0-0_0
  6
CONTINUOUS
 62
    7
 10
50.374427787999991
 20
218.98912250060002
 11
50.272960168899999
 21
219.0600192329
  0
LINE
  8
_0-0_0
  6
CONTINUOUS
 62
    7
 10
49.968955025500009
 20
218.4014326985
 11
50.0128032856
 21
218.40079539220002
  0
LINE
  8
_0-0_0
  6
CONTINUOUS
 62
    7
 10
50.0128032856
 20
218.40079539220002
 11
50.021848136399996
 21
218.40030403420002
  0
LINE
  8
_0-0_0
  6
CONTINUOUS
 62
    7
 10
49.967755839999995
 20
218.40167014880001
 11
49.968990530300005
 21
218.40165824680003
  0
LINE
  8
_0-0_0
  6
CONTINUOUS
 62
    7
 10
40.36918009819999
 20
219.0600192329
 11
40.267712479099998
 21
218.98912250060002
  0
LINE
  8
_0-0_0
  6
CONTINUOUS
 62
    7
 10
40.267712479099998
 20
218.98912250060002
 11
40.188775807899987
 21
218.94231294230002
  0
LINE
  8
_0-0_0
  6
CONTINUOUS
 62
    7
 10
40.636618093399989
 20
218.40076652100001
 11
40.673189822899985
 21
218.40137727140001
  0
LINE
  8
_0-0_0
  6
CONTINUOUS
 62
    7
 10
40.673150135899988
 20
218.40165854490002
 11
40.673862081899983
 21
218.40166592260002
  0
LINE
  8
_0-0_0
  6
CONTINUOUS
 62
    7
 10
40.673862081899983
 20
218.40166592260002
 11
40.674385771199979
 21
218.40167064780002
  0
LINE
  8
_0-0_0
  6
CONTINUOUS
 62
    7
 10
50.066016175100003
 20
212.9865621079
 11
50.062504230599984
 21
212.98944480980001
  0
LINE
  8
_0-0_0
  6
CONTINUOUS
 62
    7
 10
50.062504230599984
 20
212.98944480980001
 11
50.052067713199989
 21
212.99221448060001
  0
LINE
  8
_0-0_0
  6
CONTINUOUS
 62
    7
 10
50.052067713199989
 20
212.99221448060001
 11
50.035001762099995
 21
212.9947927952
  0
LINE
  8
_0-0_0
  6
CONTINUOUS
 62
    7
 10
50.035001762099995
 20
212.9947927952
 11
50.011788993799996
 21
212.99710684040002
  0
LINE
  8
_0-0_0
  6
CONTINUOUS
 62
    7
 10
50.011788993799996
 20
212.99710684040002
 11
49.983085853399984
 21
212.99909117600001
  0
LINE
  8
_0-0_0
  6
CONTINUOUS
 62
    7
 10
49.983085853399984
 20
212.99909117600001
 11
49.949704050999998
 21
213.0006896861
  0
LINE
  8
_0-0_0
  6
CONTINUOUS
 62
    7
 10
49.949704050999998
 20
213.0006896861
 11
49.912587606800003
 21
213.00185716570002
  0
LINE
  8
_0-0_0
  6
CONTINUOUS
 62
    7
 10
49.912587606800003
 20
213.00185716570002
 11
49.872786154899984
 21
213.00256059900002
  0
LINE
  8
_0-0_0
  6
CONTINUOUS
 62
    7
 10
49.872786154899984
 20
213.00256059900002
 11
49.831425259899987
 21
213.00278009320002
  0
LINE
  8
_0-0_0
  6
CONTINUOUS
 62
    7
 10
50.100691791499997
 20
213.36832040420001
 11
49.831425259899987
 21
213.00278009320002
  0
LINE
  8
_0-0_0
  6
CONTINUOUS
 62
    7
 10
49.990363873999996
 20
212.8798377503
 11
49.9873977094
 21
212.8798343306
  0
LINE
  8
_0-0_0
  6
CONTINUOUS
 62
    7
 10
49.831425259899987
 20
213.00278009320002
 11
49.831420258500003
 21
213.00388977220001
  0
LINE
  8
_0-0_0
  6
CONTINUOUS
 62
    7
 10
49.831420258500003
 20
213.00388977220001
 11
49.830507950099985
 21
213.00359992030002
  0
ARC
  8
_0-0_0
  6
CONTINUOUS
 62
    7
 10
50.010512979499993
 20
213.05698669790002
 40
0.1882039629058518
 50
179.03345352299999
 51
196.52220136410003
  0
ARC
  8
_0-0_0
  6
CONTINUOUS
 62
    7
 10
49.993194557099997
 20
213.11427052160002
 40
0.234449860381432
 50
269.30820971550003
 51
298.88922364270002
  0
ARC
  8
_0-0_0
  6
CONTINUOUS
 62
    7
 10
50.063035780199982
 20
213.1979976833
 40
0.2132238237313683
 50
249.903808492
 51
270.44819723080002
  0
LINE
  8
_0-0_0
  6
CONTINUOUS
 62
    7
 10
49.790181812100002
 20
212.9753833501
 11
49.793716510999985
 21
212.96961376430002
  0
LINE
  8
_0-0_0
  6
CONTINUOUS
 62
    7
 10
49.793716510999985
 20
212.96961376430002
 11
49.852535682899997
 21
212.91871621870001
  0
LINE
  8
_0-0_0
  6
CONTINUOUS
 62
    7
 10
49.852535682899997
 20
212.91871621870001
 11
49.890672415599994
 21
212.89920135230003
  0
LINE
  8
_0-0_0
  6
CONTINUOUS
 62
    7
 10
49.890672415599994
 20
212.89920135230003
 11
49.931754787100004
 21
212.88619024620002
  0
LINE
  8
_0-0_0
  6
CONTINUOUS
 62
    7
 10
49.931754787100004
 20
212.88619024620002
 11
49.9873977094
 21
212.8798343306
  0
LINE
  8
_0-0_0
  6
CONTINUOUS
 62
    7
 10
50.716466897000004
 20
215.45947887580002
 11
50.749485293600003
 21
215.44762435310003
  0
LINE
  8
_0-0_0
  6
CONTINUOUS
 62
    7
 10
50.749485293600003
 20
215.44762435310003
 11
50.802405387100009
 21
215.42221850370001
  0
LINE
  8
_0-0_0
  6
CONTINUOUS
 62
    7
 10
50.802405387100009
 20
215.42221850370001
 11
50.848055170199984
 21
215.39085056340002
  0
LINE
  8
_0-0_0
  6
CONTINUOUS
 62
    7
 10
50.848055170199984
 20
215.39085056340002
 11
50.882227314799991
 21
215.35666767820001
  0
LINE
  8
_0-0_0
  6
CONTINUOUS
 62
    7
 10
50.882227314799991
 20
215.35666767820001
 11
50.906597278499987
 21
215.3183578199
  0
LINE
  8
_0-0_0
  6
CONTINUOUS
 62
    7
 10
50.906597278499987
 20
215.3183578199
 11
50.919246506099995
 21
215.2786127329
  0
LINE
  8
_0-0_0
  6
CONTINUOUS
 62
    7
 10
50.919246506099995
 20
215.2786127329
 11
50.919632755900011
 21
215.25982350960001
  0
LINE
  8
_0-0_0
  6
CONTINUOUS
 62
    7
 10
50.709605522900006
 20
215.37883263680001
 11
50.716466897000004
 21
215.45947887580002
  0
LINE
  8
_0-0_0
  6
CONTINUOUS
 62
    7
 10
50.680216273100001
 20
215.38681250880001
 11
50.709605522900006
 21
215.37883263680001
  0
LINE
  8
_0-0_0
  6
CONTINUOUS
 62
    7
 10
50.654418681399989
 20
215.5539915098
 11
50.673695551500003
 21
215.43173574570002
  0
LINE
  8
_0-0_0
  6
CONTINUOUS
 62
    7
 10
50.673695551500003
 20
215.43173574570002
 11
50.680216273100001
 21
215.38681250880001
  0
LINE
  8
_0-0_0
  6
CONTINUOUS
 62
    7
 10
50.624848958099989
 20
215.55943974230001
 11
50.654418681399989
 21
215.5539915098
  0
LINE
  8
_0-0_0
  6
CONTINUOUS
 62
    7
 10
50.611225708900008
 20
215.3995430141
 11
50.62133623439999
 21
215.51851287880001
  0
LINE
  8
_0-0_0
  6
CONTINUOUS
 62
    7
 10
50.62133623439999
 20
215.51851287880001
 11
50.624848958099989
 21
215.55943974230001
  0
LINE
  8
_0-0_0
  6
CONTINUOUS
 62
    7
 10
50.581493439300004
 20
215.4027110847
 11
50.604125419699983
 21
215.4004206571
  0
LINE
  8
_0-0_0
  6
CONTINUOUS
 62
    7
 10
50.604125419699983
 20
215.4004206571
 11
50.611225708900008
 21
215.3995430141
  0
LINE
  8
_0-0_0
  6
CONTINUOUS
 62
    7
 10
50.555476422600009
 20
215.56681204290001
 11
50.575342722199991
 21
215.44399612310002
  0
LINE
  8
_0-0_0
  6
CONTINUOUS
 62
    7
 10
50.575342722199991
 20
215.44399612310002
 11
50.581493439300004
 21
215.4027110847
  0
LINE
  8
_0-0_0
  6
CONTINUOUS
 62
    7
 10
50.5255896818
 20
215.56781322810002
 11
50.555476422600009
 21
215.56681204290001
  0
LINE
  8
_0-0_0
  6
CONTINUOUS
 62
    7
 10
50.511765564600012
 20
215.40509876890002
 11
50.522472371999982
 21
215.53139052430001
  0
LINE
  8
_0-0_0
  6
CONTINUOUS
 62
    7
 10
50.522472371999982
 20
215.53139052430001
 11
50.5255896818
 21
215.56781322810002
  0
LINE
  8
_0-0_0
  6
CONTINUOUS
 62
    7
 10
50.481730199099985
 20
215.40401508230002
 11
50.511765564600012
 21
215.40509876890002
  0
LINE
  8
_0-0_0
  6
CONTINUOUS
 62
    7
 10
50.45550953290001
 20
215.5652592923
 11
50.475667268400002
 21
215.44372175800001
  0
LINE
  8
_0-0_0
  6
CONTINUOUS
 62
    7
 10
50.475667268400002
 20
215.44372175800001
 11
50.481730199099985
 21
215.40401508230002
  0
LINE
  8
_0-0_0
  6
CONTINUOUS
 62
    7
 10
50.425321828600005
 20
215.5620386322
 11
50.45550953290001
 21
215.5652592923
  0
LINE
  8
_0-0_0
  6
CONTINUOUS
 62
    7
 10
50.411294024900002
 20
215.39646690730001
 11
50.421450208199985
 21
215.51664609650001
  0
LINE
  8
_0-0_0
  6
CONTINUOUS
 62
    7
 10
50.421450208199985
 20
215.51664609650001
 11
50.425321828600005
 21
215.5620386322
  0
LINE
  8
_0-0_0
  6
CONTINUOUS
 62
    7
 10
50.3809434538
 20
215.3909615892
 11
50.411294024900002
 21
215.39646690730001
  0
LINE
  8
_0-0_0
  6
CONTINUOUS
 62
    7
 10
50.354507931699999
 20
215.54919185150001
 11
50.375700415899985
 21
215.42454019320002
  0
LINE
  8
_0-0_0
  6
CONTINUOUS
 62
    7
 10
50.375700415899985
 20
215.42454019320002
 11
50.3809434538
 21
215.3909615892
  0
LINE
  8
_0-0_0
  6
CONTINUOUS
 62
    7
 10
50.323976812399991
 20
215.54115384470001
 11
50.347644477800003
 21
215.54752511480001
  0
LINE
  8
_0-0_0
  6
CONTINUOUS
 62
    7
 10
50.347644477800003
 20
215.54752511480001
 11
50.354507931699999
 21
215.54919185150001
  0
LINE
  8
_0-0_0
  6
CONTINUOUS
 62
    7
 10
50.31699562579999
 20
215.4590612492
 11
50.321564232100002
 21
215.51287418360002
  0
LINE
  8
_0-0_0
  6
CONTINUOUS
 62
    7
 10
50.321564232100002
 20
215.51287418360002
 11
50.323976812399991
 21
215.54115384470001
  0
LINE
  8
_0-0_0
  6
CONTINUOUS
 62
    7
 10
50.082314515099995
 20
215.22536126780003
 11
50.084445782999978
 21
215.26273063990001
  0
LINE
  8
_0-0_0
  6
CONTINUOUS
 62
    7
 10
50.084445782999978
 20
215.26273063990001
 11
50.099051004099977
 21
215.3041404743
  0
LINE
  8
_0-0_0
  6
CONTINUOUS
 62
    7
 10
50.099051004099977
 20
215.3041404743
 11
50.124284943799978
 21
215.3422667371
  0
LINE
  8
_0-0_0
  6
CONTINUOUS
 62
    7
 10
50.124284943799978
 20
215.3422667371
 11
50.160831236999996
 21
215.37871064410001
  0
LINE
  8
_0-0_0
  6
CONTINUOUS
 62
    7
 10
50.160831236999996
 20
215.37871064410001
 11
50.20642237749999
 21
215.41080758660001
  0
LINE
  8
_0-0_0
  6
CONTINUOUS
 62
    7
 10
50.20642237749999
 20
215.41080758660001
 11
50.262014351099992
 21
215.43897253660001
  0
LINE
  8
_0-0_0
  6
CONTINUOUS
 62
    7
 10
50.262014351099992
 20
215.43897253660001
 11
50.31699562579999
 21
215.4590612492
  0
LINE
  8
_0-0_0
  6
CONTINUOUS
 62
    7
 10
50.413337935399994
 20
215.39393137530001
 11
50.425321828600005
 21
215.5620386322
  0
LINE
  8
_0-0_0
  6
CONTINUOUS
 62
    7
 10
50.613634549899984
 20
215.402126643
 11
50.624848958099989
 21
215.55943974230001
  0
LINE
  8
_0-0_0
  6
CONTINUOUS
 62
    7
 10
50.710863754999991
 20
215.3808793069
 11
50.716466897000004
 21
215.45947887580002
  0
LINE
  8
_0-0_0
  6
CONTINUOUS
 62
    7
 10
50.317974597999978
 20
215.45695618300002
 11
50.323976812399991
 21
215.54115384470001
  0
LINE
  8
_0-0_0
  6
CONTINUOUS
 62
    7
 10
50.04717238149999
 20
218.62653696710001
 11
50.042514084099992
 21
218.67435603230001
  0
LINE
  8
_0-0_0
  6
CONTINUOUS
 62
    7
 10
50.43937758589999
 20
218.902947111
 11
50.452416722999999
 21
218.8959810712
  0
LINE
  8
_0-0_0
  6
CONTINUOUS
 62
    7
 10
49.679855634700004
 20
218.77164967270002
 11
49.681549986999983
 21
218.7711984332
  0
LINE
  8
_0-0_0
  6
CONTINUOUS
 62
    7
 10
50.298682524699984
 20
219.04204669160001
 11
50.294434851299997
 21
219.05282275710002
  0
LINE
  8
_0-0_0
  6
CONTINUOUS
 62
    7
 10
50.294434851299997
 20
219.05282275710002
 11
50.254004627799986
 21
219.11618740810002
  0
LINE
  8
_0-0_0
  6
CONTINUOUS
 62
    7
 10
50.254004627799986
 20
219.11618740810002
 11
50.19842421369998
 21
219.17284764190001
  0
LINE
  8
_0-0_0
  6
CONTINUOUS
 62
    7
 10
50.19842421369998
 20
219.17284764190001
 11
50.16371397910001
 21
219.19683704850002
  0
LINE
  8
_0-0_0
  6
CONTINUOUS
 62
    7
 10
50.16371397910001
 20
219.19683704850002
 11
50.123858389299983
 21
219.2162182637
  0
LINE
  8
_0-0_0
  6
CONTINUOUS
 62
    7
 10
50.123858389299983
 20
219.2162182637
 11
50.079113447800012
 21
219.22913524360001
  0
LINE
  8
_0-0_0
  6
CONTINUOUS
 62
    7
 10
50.079113447800012
 20
219.22913524360001
 11
50.031020317899987
 21
219.23369276490001
  0
LINE
  8
_0-0_0
  6
CONTINUOUS
 62
    7
 10
50.031020317899987
 20
219.23369276490001
 11
49.982483490600004
 21
219.229048312
  0
LINE
  8
_0-0_0
  6
CONTINUOUS
 62
    7
 10
49.982483490600004
 20
219.229048312
 11
49.936489138799999
 21
219.21604963530001
  0
LINE
  8
_0-0_0
  6
CONTINUOUS
 62
    7
 10
49.936489138799999
 20
219.21604963530001
 11
49.894761370200001
 21
219.19659491890002
  0
LINE
  8
_0-0_0
  6
CONTINUOUS
 62
    7
 10
49.894761370200001
 20
219.19659491890002
 11
49.857735163200005
 21
219.17254085440001
  0
LINE
  8
_0-0_0
  6
CONTINUOUS
 62
    7
 10
49.857735163200005
 20
219.17254085440001
 11
49.796687117399983
 21
219.11577546680002
  0
LINE
  8
_0-0_0
  6
CONTINUOUS
 62
    7
 10
49.796687117399983
 20
219.11577546680002
 11
49.750144273800004
 21
219.05233238240001
  0
LINE
  8
_0-0_0
  6
CONTINUOUS
 62
    7
 10
49.750144273800004
 20
219.05233238240001
 11
49.706051400299998
 21
218.9623893024
  0
LINE
  8
_0-0_0
  6
CONTINUOUS
 62
    7
 10
49.706051400299998
 20
218.9623893024
 11
49.690181283699985
 21
218.9077380352
  0
LINE
  8
_0-0_0
  6
CONTINUOUS
 62
    7
 10
49.67395280689999
 20
218.7071269445
 11
49.678498422800004
 21
218.661595718
  0
LINE
  8
_0-0_0
  6
CONTINUOUS
 62
    7
 10
49.678498422800004
 20
218.661595718
 11
49.704190409799992
 21
218.54935740370001
  0
LINE
  8
_0-0_0
  6
CONTINUOUS
 62
    7
 10
49.704190409799992
 20
218.54935740370001
 11
49.746244807499977
 21
218.44001706500001
  0
LINE
  8
_0-0_0
  6
CONTINUOUS
 62
    7
 10
49.746244807499977
 20
218.44001706500001
 11
49.790997402500011
 21
218.36181650600003
  0
LINE
  8
_0-0_0
  6
CONTINUOUS
 62
    7
 10
49.790997402500011
 20
218.36181650600003
 11
49.850650447799978
 21
218.29018403380002
  0
LINE
  8
_0-0_0
  6
CONTINUOUS
 62
    7
 10
49.850650447799978
 20
218.29018403380002
 11
49.887633232100001
 21
218.25887970150001
  0
LINE
  8
_0-0_0
  6
CONTINUOUS
 62
    7
 10
49.887633232100001
 20
218.25887970150001
 11
49.93030812569998
 21
218.23278741130002
  0
LINE
  8
_0-0_0
  6
CONTINUOUS
 62
    7
 10
49.93030812569998
 20
218.23278741130002
 11
49.978731234399987
 21
218.2147386023
  0
LINE
  8
_0-0_0
  6
CONTINUOUS
 62
    7
 10
49.978731234399987
 20
218.2147386023
 11
50.031018587700004
 21
218.2081787045
  0
LINE
  8
_0-0_0
  6
CONTINUOUS
 62
    7
 10
50.031018587700004
 20
218.2081787045
 11
50.044774424999986
 21
218.2099464353
  0
LINE
  8
_0-0_0
  6
CONTINUOUS
 62
    7
 10
50.038631290699982
 20
217.4625089955
 11
50.001928552999999
 21
217.4622044738
  0
LINE
  8
_0-0_0
  6
CONTINUOUS
 62
    7
 10
50.001928552999999
 20
217.4622044738
 11
49.939501259599979
 21
217.4636080265
  0
LINE
  8
_0-0_0
  6
CONTINUOUS
 62
    7
 10
49.939501259599979
 20
217.4636080265
 11
49.879473012099993
 21
217.46687915200002
  0
LINE
  8
_0-0_0
  6
CONTINUOUS
 62
    7
 10
49.879473012099993
 20
217.46687915200002
 11
49.824150662400001
 21
217.4718921427
  0
LINE
  8
_0-0_0
  6
CONTINUOUS
 62
    7
 10
49.824150662400001
 20
217.4718921427
 11
49.775660217299986
 21
217.47845435230002
  0
LINE
  8
_0-0_0
  6
CONTINUOUS
 62
    7
 10
49.775660217299986
 20
217.47845435230002
 11
49.735865137399998
 21
217.48631359870001
  0
LINE
  8
_0-0_0
  6
CONTINUOUS
 62
    7
 10
49.735865137399998
 20
217.48631359870001
 11
49.706294725399999
 21
217.49516785540001
  0
LINE
  8
_0-0_0
  6
CONTINUOUS
 62
    7
 10
49.706294725399999
 20
217.49516785540001
 11
49.689783310699994
 21
217.503414687
  0
LINE
  8
_0-0_0
  6
CONTINUOUS
 62
    7
 10
49.689783310699994
 20
217.503414687
 11
49.68467164499998
 21
217.50926547750001
  0
LINE
  8
_0-0_0
  6
CONTINUOUS
 62
    7
 10
49.67017395260001
 20
218.31850176130001
 11
49.672394850300009
 21
218.14228523120002
  0
LINE
  8
_0-0_0
  6
CONTINUOUS
 62
    7
 10
49.672394850300009
 20
218.14228523120002
 11
49.675422768499999
 21
217.98467992670001
  0
LINE
  8
_0-0_0
  6
CONTINUOUS
 62
    7
 10
49.675422768499999
 20
217.98467992670001
 11
49.679426427300001
 21
217.8271020569
  0
LINE
  8
_0-0_0
  6
CONTINUOUS
 62
    7
 10
49.679426427300001
 20
217.8271020569
 11
49.683977079599998
 21
217.6695128911
  0
LINE
  8
_0-0_0
  6
CONTINUOUS
 62
    7
 10
49.683977079599998
 20
217.6695128911
 11
49.682792707999994
 21
217.55492486470001
  0
LINE
  8
_0-0_0
  6
CONTINUOUS
 62
    7
 10
49.667479764599989
 20
218.70037847200001
 11
49.668109319099983
 21
218.54668494410001
  0
LINE
  8
_0-0_0
  6
CONTINUOUS
 62
    7
 10
49.668109319099983
 20
218.54668494410001
 11
49.67017395260001
 21
218.31850176130001
  0
LINE
  8
_0-0_0
  6
CONTINUOUS
 62
    7
 10
50.116650808599985
 20
222.9455177115
 11
50.114622306400008
 21
222.95028036510001
  0
LINE
  8
_0-0_0
  6
CONTINUOUS
 62
    7
 10
50.114622306400008
 20
222.95028036510001
 11
50.10565619099998
 21
222.95688388310001
  0
LINE
  8
_0-0_0
  6
CONTINUOUS
 62
    7
 10
50.10565619099998
 20
222.95688388310001
 11
50.08995765169999
 21
222.96285397310001
  0
LINE
  8
_0-0_0
  6
CONTINUOUS
 62
    7
 10
50.08995765169999
 20
222.96285397310001
 11
50.068260734799992
 21
222.9679114802
  0
LINE
  8
_0-0_0
  6
CONTINUOUS
 62
    7
 10
50.068260734799992
 20
222.9679114802
 11
50.041579963999993
 21
222.97181992110001
  0
LINE
  8
_0-0_0
  6
CONTINUOUS
 62
    7
 10
50.041579963999993
 20
222.97181992110001
 11
50.011162902400002
 21
222.97439654140001
  0
LINE
  8
_0-0_0
  6
CONTINUOUS
 62
    7
 10
50.011162902400002
 20
222.97439654140001
 11
49.978431818099978
 21
222.97552086120001
  0
LINE
  8
_0-0_0
  6
CONTINUOUS
 62
    7
 10
49.978431818099978
 20
222.97552086120001
 11
49.94491718019998
 21
222.9751403086
  0
LINE
  8
_0-0_0
  6
CONTINUOUS
 62
    7
 10
49.94491718019998
 20
222.9751403086
 11
49.912186095899983
 21
222.97327267780003
  0
LINE
  8
_0-0_0
  6
CONTINUOUS
 62
    7
 10
49.912186095899983
 20
222.97327267780003
 11
49.881769034400008
 21
222.97000529710002
  0
LINE
  8
_0-0_0
  6
CONTINUOUS
 62
    7
 10
49.881769034400008
 20
222.97000529710002
 11
49.85508826360001
 21
222.96549094560001
  0
LINE
  8
_0-0_0
  6
CONTINUOUS
 62
    7
 10
49.85508826360001
 20
222.96549094560001
 11
49.833391346599996
 21
222.9599407094
  0
LINE
  8
_0-0_0
  6
CONTINUOUS
 62
    7
 10
49.833391346599996
 20
222.9599407094
 11
49.817692807399993
 21
222.95361411140001
  0
LINE
  8
_0-0_0
  6
CONTINUOUS
 62
    7
 10
49.817692807399993
 20
222.95361411140001
 11
49.808726691999993
 21
222.94680697620001
  0
LINE
  8
_0-0_0
  6
CONTINUOUS
 62
    7
 10
49.808726691999993
 20
222.94680697620001
 11
49.806690085899987
 21
222.941839606
  0
LINE
  8
_0-0_0
  6
CONTINUOUS
 62
    7
 10
49.930240920199992
 20
206.29468857330002
 11
49.734544958100003
 21
206.29468857330002
  0
LINE
  8
_0-0_0
  6
CONTINUOUS
 62
    7
 10
50.1079077192
 20
206.29468857330002
 11
49.930240920199992
 21
206.29468857330002
  0
LINE
  8
_0-0_0
  6
CONTINUOUS
 62
    7
 10
50.737804541499997
 20
206.29468857330002
 11
50.345742069899984
 21
206.29468857330002
  0
LINE
  8
_0-0_0
  6
CONTINUOUS
 62
    7
 10
50.31699562579999
 20
215.4590612492
 11
50.321564232100002
 21
215.51287418360002
  0
LINE
  8
_0-0_0
  6
CONTINUOUS
 62
    7
 10
50.321564232100002
 20
215.51287418360002
 11
50.323976812399991
 21
215.54115384470001
  0
LINE
  8
_0-0_0
  6
CONTINUOUS
 62
    7
 10
50.323976812399991
 20
215.54115384470001
 11
50.347644477800003
 21
215.54752511480001
  0
LINE
  8
_0-0_0
  6
CONTINUOUS
 62
    7
 10
50.347644477800003
 20
215.54752511480001
 11
50.354507931699999
 21
215.54919185150001
  0
LINE
  8
_0-0_0
  6
CONTINUOUS
 62
    7
 10
50.354507931699999
 20
215.54919185150001
 11
50.375700415899985
 21
215.42454019320002
  0
LINE
  8
_0-0_0
  6
CONTINUOUS
 62
    7
 10
50.375700415899985
 20
215.42454019320002
 11
50.3809434538
 21
215.3909615892
  0
LINE
  8
_0-0_0
  6
CONTINUOUS
 62
    7
 10
50.3809434538
 20
215.3909615892
 11
50.411294024900002
 21
215.39646690730001
  0
LINE
  8
_0-0_0
  6
CONTINUOUS
 62
    7
 10
50.411294024900002
 20
215.39646690730001
 11
50.421450208199985
 21
215.51664609650001
  0
LINE
  8
_0-0_0
  6
CONTINUOUS
 62
    7
 10
50.421450208199985
 20
215.51664609650001
 11
50.425321828600005
 21
215.5620386322
  0
LINE
  8
_0-0_0
  6
CONTINUOUS
 62
    7
 10
50.425321828600005
 20
215.5620386322
 11
50.45550953290001
 21
215.5652592923
  0
LINE
  8
_0-0_0
  6
CONTINUOUS
 62
    7
 10
50.45550953290001
 20
215.5652592923
 11
50.475667268400002
 21
215.44372175800001
  0
LINE
  8
_0-0_0
  6
CONTINUOUS
 62
    7
 10
50.475667268400002
 20
215.44372175800001
 11
50.481730199099985
 21
215.40401508230002
  0
LINE
  8
_0-0_0
  6
CONTINUOUS
 62
    7
 10
50.481730199099985
 20
215.40401508230002
 11
50.511765564600012
 21
215.40509876890002
  0
LINE
  8
_0-0_0
  6
CONTINUOUS
 62
    7
 10
50.511765564600012
 20
215.40509876890002
 11
50.522472371999982
 21
215.53139052430001
  0
LINE
  8
_0-0_0
  6
CONTINUOUS
 62
    7
 10
50.522472371999982
 20
215.53139052430001
 11
50.5255896818
 21
215.56781322810002
  0
LINE
  8
_0-0_0
  6
CONTINUOUS
 62
    7
 10
50.5255896818
 20
215.56781322810002
 11
50.555476422600009
 21
215.56681204290001
  0
LINE
  8
_0-0_0
  6
CONTINUOUS
 62
    7
 10
50.555476422600009
 20
215.56681204290001
 11
50.575342722199991
 21
215.44399612310002
  0
LINE
  8
_0-0_0
  6
CONTINUOUS
 62
    7
 10
50.575342722199991
 20
215.44399612310002
 11
50.581493439300004
 21
215.4027110847
  0
LINE
  8
_0-0_0
  6
CONTINUOUS
 62
    7
 10
50.581493439300004
 20
215.4027110847
 11
50.604125419699983
 21
215.4004206571
  0
LINE
  8
_0-0_0
  6
CONTINUOUS
 62
    7
 10
50.604125419699983
 20
215.4004206571
 11
50.611225708900008
 21
215.3995430141
  0
LINE
  8
_0-0_0
  6
CONTINUOUS
 62
    7
 10
50.611225708900008
 20
215.3995430141
 11
50.62133623439999
 21
215.51851287880001
  0
LINE
  8
_0-0_0
  6
CONTINUOUS
 62
    7
 10
50.62133623439999
 20
215.51851287880001
 11
50.624848958099989
 21
215.55943974230001
  0
LINE
  8
_0-0_0
  6
CONTINUOUS
 62
    7
 10
50.624848958099989
 20
215.55943974230001
 11
50.654418681399989
 21
215.5539915098
  0
LINE
  8
_0-0_0
  6
CONTINUOUS
 62
    7
 10
50.654418681399989
 20
215.5539915098
 11
50.673695551500003
 21
215.43173574570002
  0
LINE
  8
_0-0_0
  6
CONTINUOUS
 62
    7
 10
50.673695551500003
 20
215.43173574570002
 11
50.680216273100001
 21
215.38681250880001
  0
LINE
  8
_0-0_0
  6
CONTINUOUS
 62
    7
 10
50.680216273100001
 20
215.38681250880001
 11
50.709605522900006
 21
215.37883263680001
  0
LINE
  8
_0-0_0
  6
CONTINUOUS
 62
    7
 10
50.709605522900006
 20
215.37883263680001
 11
50.716466897000004
 21
215.45947887580002
  0
LINE
  8
_0-0_0
  6
CONTINUOUS
 62
    7
 10
50.716466897000004
 20
215.45947887580002
 11
50.749485293600003
 21
215.44762435310003
  0
LINE
  8
_0-0_0
  6
CONTINUOUS
 62
    7
 10
50.749485293600003
 20
215.44762435310003
 11
50.802405387100009
 21
215.42221850370001
  0
LINE
  8
_0-0_0
  6
CONTINUOUS
 62
    7
 10
50.802405387100009
 20
215.42221850370001
 11
50.848055170199984
 21
215.39085056340002
  0
LINE
  8
_0-0_0
  6
CONTINUOUS
 62
    7
 10
50.848055170199984
 20
215.39085056340002
 11
50.882227314799991
 21
215.35666767820001
  0
LINE
  8
_0-0_0
  6
CONTINUOUS
 62
    7
 10
50.882227314799991
 20
215.35666767820001
 11
50.906597278499987
 21
215.3183578199
  0
LINE
  8
_0-0_0
  6
CONTINUOUS
 62
    7
 10
50.906597278499987
 20
215.3183578199
 11
50.919246506099995
 21
215.2786127329
  0
LINE
  8
_0-0_0
  6
CONTINUOUS
 62
    7
 10
50.919246506099995
 20
215.2786127329
 11
50.919604044799996
 21
215.26122016580001
  0
LINE
  8
_0-0_0
  6
CONTINUOUS
 62
    7
 10
50.082507432599982
 20
215.22874385850002
 11
50.084445782999978
 21
215.26273063990001
  0
LINE
  8
_0-0_0
  6
CONTINUOUS
 62
    7
 10
50.084445782999978
 20
215.26273063990001
 11
50.099051004099977
 21
215.3041404743
  0
LINE
  8
_0-0_0
  6
CONTINUOUS
 62
    7
 10
50.099051004099977
 20
215.3041404743
 11
50.124284943799978
 21
215.3422667371
  0
LINE
  8
_0-0_0
  6
CONTINUOUS
 62
    7
 10
50.124284943799978
 20
215.3422667371
 11
50.160831236999996
 21
215.37871064410001
  0
LINE
  8
_0-0_0
  6
CONTINUOUS
 62
    7
 10
50.160831236999996
 20
215.37871064410001
 11
50.20642237749999
 21
215.41080758660001
  0
LINE
  8
_0-0_0
  6
CONTINUOUS
 62
    7
 10
50.20642237749999
 20
215.41080758660001
 11
50.262014351099992
 21
215.43897253660001
  0
LINE
  8
_0-0_0
  6
CONTINUOUS
 62
    7
 10
50.262014351099992
 20
215.43897253660001
 11
50.31699562579999
 21
215.4590612492
  0
LINE
  8
_0-0_0
  6
CONTINUOUS
 62
    7
 10
40.202762681199999
 20
218.902947111
 11
40.189723544099991
 21
218.8959810712
  0
LINE
  8
_0-0_0
  6
CONTINUOUS
 62
    7
 10
40.651776393200009
 20
212.8798377503
 11
40.65474255769999
 21
212.8798343306
  0
LINE
  8
_0-0_0
  6
CONTINUOUS
 62
    7
 10
40.541161558699997
 20
213.36870990580002
 11
40.810715007200002
 21
213.00278009320002
  0
LINE
  8
_0-0_0
  6
CONTINUOUS
 62
    7
 10
40.576124091999986
 20
212.9865621079
 11
40.579636036500006
 21
212.98944480980001
  0
LINE
  8
_0-0_0
  6
CONTINUOUS
 62
    7
 10
40.579636036500006
 20
212.98944480980001
 11
40.590072553999988
 21
212.99221448060001
  0
LINE
  8
_0-0_0
  6
CONTINUOUS
 62
    7
 10
40.590072553999988
 20
212.99221448060001
 11
40.607138504999995
 21
212.9947927952
  0
LINE
  8
_0-0_0
  6
CONTINUOUS
 62
    7
 10
40.607138504999995
 20
212.9947927952
 11
40.630351273299993
 21
212.99710684040002
  0
LINE
  8
_0-0_0
  6
CONTINUOUS
 62
    7
 10
40.630351273299993
 20
212.99710684040002
 11
40.659054413799993
 21
212.99909117600001
  0
LINE
  8
_0-0_0
  6
CONTINUOUS
 62
    7
 10
40.659054413799993
 20
212.99909117600001
 11
40.692436216200008
 21
213.0006896861
  0
LINE
  8
_0-0_0
  6
CONTINUOUS
 62
    7
 10
40.692436216200008
 20
213.0006896861
 11
40.729552660299987
 21
213.00185716570002
  0
LINE
  8
_0-0_0
  6
CONTINUOUS
 62
    7
 10
40.729552660299987
 20
213.00185716570002
 11
40.769354112200006
 21
213.00256059900002
  0
LINE
  8
_0-0_0
  6
CONTINUOUS
 62
    7
 10
40.769354112200006
 20
213.00256059900002
 11
40.810715007200002
 21
213.00278009320002
  0
LINE
  8
_0-0_0
  6
CONTINUOUS
 62
    7
 10
40.810715007200002
 20
213.00278009320002
 11
40.810720008599986
 21
213.00388977220001
  0
ARC
  8
_0-0_0
  6
CONTINUOUS
 62
    7
 10
40.711205520699991
 20
213.0488244583
 40
0.1091890988508219
 50
335.69896130180001
 51
5.9596967694000043
  0
ARC
  8
_0-0_0
  6
CONTINUOUS
 62
    7
 10
40.648873929199993
 20
213.1138168347
 40
0.2339970859536262
 50
241.1603019872
 51
270.71070627829999
  0
ARC
  8
_0-0_0
  6
CONTINUOUS
 62
    7
 10
40.579105605400002
 20
213.19799250420002
 40
0.2132186534824261
 50
269.5514913376
 51
290.09328893769998
  0
LINE
  8
_0-0_0
  6
CONTINUOUS
 62
    7
 10
40.852174068599993
 20
212.9757352899
 11
40.848423756100004
 21
212.96961376430002
  0
LINE
  8
_0-0_0
  6
CONTINUOUS
 62
    7
 10
40.848423756100004
 20
212.96961376430002
 11
40.78960458429998
 21
212.91871621870001
  0
LINE
  8
_0-0_0
  6
CONTINUOUS
 62
    7
 10
40.78960458429998
 20
212.91871621870001
 11
40.751467851499996
 21
212.89920135230003
  0
LINE
  8
_0-0_0
  6
CONTINUOUS
 62
    7
 10
40.751467851499996
 20
212.89920135230003
 11
40.710385480100001
 21
212.88619024620002
  0
LINE
  8
_0-0_0
  6
CONTINUOUS
 62
    7
 10
40.710385480100001
 20
212.88619024620002
 11
40.65474255769999
 21
212.8798343306
  0
LINE
  8
_0-0_0
  6
CONTINUOUS
 62
    7
 10
40.559825751999995
 20
215.22536126780003
 11
40.557694484199999
 21
215.26273063990001
  0
LINE
  8
_0-0_0
  6
CONTINUOUS
 62
    7
 10
40.557694484199999
 20
215.26273063990001
 11
40.543089262999985
 21
215.3041404743
  0
LINE
  8
_0-0_0
  6
CONTINUOUS
 62
    7
 10
40.543089262999985
 20
215.3041404743
 11
40.517855323300012
 21
215.3422667371
  0
LINE
  8
_0-0_0
  6
CONTINUOUS
 62
    7
 10
40.517855323300012
 20
215.3422667371
 11
40.481309030099993
 21
215.37871064410001
  0
LINE
  8
_0-0_0
  6
CONTINUOUS
 62
    7
 10
40.481309030099993
 20
215.37871064410001
 11
40.435717889599999
 21
215.41080758660001
  0
LINE
  8
_0-0_0
  6
CONTINUOUS
 62
    7
 10
40.435717889599999
 20
215.41080758660001
 11
40.380125916099985
 21
215.43897253660001
  0
LINE
  8
_0-0_0
  6
CONTINUOUS
 62
    7
 10
40.380125916099985
 20
215.43897253660001
 11
40.3251446413
 21
215.4590612492
  0
LINE
  8
_0-0_0
  6
CONTINUOUS
 62
    7
 10
40.3251446413
 20
215.4590612492
 11
40.320576034999988
 21
215.51287418360002
  0
LINE
  8
_0-0_0
  6
CONTINUOUS
 62
    7
 10
40.320576034999988
 20
215.51287418360002
 11
40.318163454799986
 21
215.54115384470001
  0
LINE
  8
_0-0_0
  6
CONTINUOUS
 62
    7
 10
40.318163454799986
 20
215.54115384470001
 11
40.294495789299987
 21
215.54752511480001
  0
LINE
  8
_0-0_0
  6
CONTINUOUS
 62
    7
 10
40.294495789299987
 20
215.54752511480001
 11
40.287632335399991
 21
215.54919185150001
  0
LINE
  8
_0-0_0
  6
CONTINUOUS
 62
    7
 10
40.287632335399991
 20
215.54919185150001
 11
40.266439851200005
 21
215.42454019320002
  0
LINE
  8
_0-0_0
  6
CONTINUOUS
 62
    7
 10
40.266439851200005
 20
215.42454019320002
 11
40.261196813299989
 21
215.3909615892
  0
LINE
  8
_0-0_0
  6
CONTINUOUS
 62
    7
 10
40.261196813299989
 20
215.3909615892
 11
40.230846242199988
 21
215.39646690730001
  0
LINE
  8
_0-0_0
  6
CONTINUOUS
 62
    7
 10
40.230846242199988
 20
215.39646690730001
 11
40.220690058999992
 21
215.51664609650001
  0
LINE
  8
_0-0_0
  6
CONTINUOUS
 62
    7
 10
40.220690058999992
 20
215.51664609650001
 11
40.216818438499985
 21
215.5620386322
  0
LINE
  8
_0-0_0
  6
CONTINUOUS
 62
    7
 10
40.216818438499985
 20
215.5620386322
 11
40.186630734299996
 21
215.5652592923
  0
LINE
  8
_0-0_0
  6
CONTINUOUS
 62
    7
 10
40.186630734299996
 20
215.5652592923
 11
40.166472998699987
 21
215.44372175800001
  0
LINE
  8
_0-0_0
  6
CONTINUOUS
 62
    7
 10
40.166472998699987
 20
215.44372175800001
 11
40.160410068000004
 21
215.40401508230002
  0
LINE
  8
_0-0_0
  6
CONTINUOUS
 62
    7
 10
40.160410068000004
 20
215.40401508230002
 11
40.130374702599994
 21
215.40509876890002
  0
LINE
  8
_0-0_0
  6
CONTINUOUS
 62
    7
 10
40.130374702599994
 20
215.40509876890002
 11
40.119667895100008
 21
215.53139052430001
  0
LINE
  8
_0-0_0
  6
CONTINUOUS
 62
    7
 10
40.119667895100008
 20
215.53139052430001
 11
40.11655058529999
 21
215.56781322810002
  0
LINE
  8
_0-0_0
  6
CONTINUOUS
 62
    7
 10
40.11655058529999
 20
215.56781322810002
 11
40.086663844499981
 21
215.56681204290001
  0
LINE
  8
_0-0_0
  6
CONTINUOUS
 62
    7
 10
40.086663844499981
 20
215.56681204290001
 11
40.066797544999986
 21
215.44399612310002
  0
LINE
  8
_0-0_0
  6
CONTINUOUS
 62
    7
 10
40.066797544999986
 20
215.44399612310002
 11
40.060646827799985
 21
215.4027110847
  0
LINE
  8
_0-0_0
  6
CONTINUOUS
 62
    7
 10
40.060646827799985
 20
215.4027110847
 11
40.038014847400007
 21
215.4004206571
  0
LINE
  8
_0-0_0
  6
CONTINUOUS
 62
    7
 10
40.038014847400007
 20
215.4004206571
 11
40.030914558199981
 21
215.3995430141
  0
LINE
  8
_0-0_0
  6
CONTINUOUS
 62
    7
 10
40.030914558199981
 20
215.3995430141
 11
40.020804032699999
 21
215.51851287880001
  0
LINE
  8
_0-0_0
  6
CONTINUOUS
 62
    7
 10
40.020804032699999
 20
215.51851287880001
 11
40.017291309099988
 21
215.55943974230001
  0
LINE
  8
_0-0_0
  6
CONTINUOUS
 62
    7
 10
40.017291309099988
 20
215.55943974230001
 11
39.987721585799989
 21
215.5539915098
  0
LINE
  8
_0-0_0
  6
CONTINUOUS
 62
    7
 10
39.987721585799989
 20
215.5539915098
 11
39.968444715599986
 21
215.43173574570002
  0
LINE
  8
_0-0_0
  6
CONTINUOUS
 62
    7
 10
39.968444715599986
 20
215.43173574570002
 11
39.961923994100005
 21
215.38681250880001
  0
LINE
  8
_0-0_0
  6
CONTINUOUS
 62
    7
 10
39.961923994100005
 20
215.38681250880001
 11
39.932534744199984
 21
215.37883263680001
  0
LINE
  8
_0-0_0
  6
CONTINUOUS
 62
    7
 10
39.932534744199984
 20
215.37883263680001
 11
39.925673370099986
 21
215.45947887580002
  0
LINE
  8
_0-0_0
  6
CONTINUOUS
 62
    7
 10
39.925673370099986
 20
215.45947887580002
 11
39.892654973499987
 21
215.44762435310003
  0
LINE
  8
_0-0_0
  6
CONTINUOUS
 62
    7
 10
39.892654973499987
 20
215.44762435310003
 11
39.83973487999998
 21
215.42221850370001
  0
LINE
  8
_0-0_0
  6
CONTINUOUS
 62
    7
 10
39.83973487999998
 20
215.42221850370001
 11
39.794085096900005
 21
215.39085056340002
  0
LINE
  8
_0-0_0
  6
CONTINUOUS
 62
    7
 10
39.794085096900005
 20
215.39085056340002
 11
39.759912952299999
 21
215.35666767820001
  0
LINE
  8
_0-0_0
  6
CONTINUOUS
 62
    7
 10
39.759912952299999
 20
215.35666767820001
 11
39.735542988600002
 21
215.3183578199
  0
LINE
  8
_0-0_0
  6
CONTINUOUS
 62
    7
 10
39.735542988600002
 20
215.3183578199
 11
39.722893760999995
 21
215.2786127329
  0
LINE
  8
_0-0_0
  6
CONTINUOUS
 62
    7
 10
39.722893760999995
 20
215.2786127329
 11
39.722507511299995
 21
215.25982350960001
  0
LINE
  8
_0-0_0
  6
CONTINUOUS
 62
    7
 10
40.228802331800011
 20
215.39393137530001
 11
40.216818438499985
 21
215.5620386322
  0
LINE
  8
_0-0_0
  6
CONTINUOUS
 62
    7
 10
40.028505717200005
 20
215.402126643
 11
40.017291309099988
 21
215.55943974230001
  0
LINE
  8
_0-0_0
  6
CONTINUOUS
 62
    7
 10
39.931276512199986
 20
215.3808793069
 11
39.925673370099986
 21
215.45947887580002
  0
LINE
  8
_0-0_0
  6
CONTINUOUS
 62
    7
 10
40.324165669100012
 20
215.45695618300002
 11
40.318163454799986
 21
215.54115384470001
  0
LINE
  8
_0-0_0
  6
CONTINUOUS
 62
    7
 10
40.590629605700002
 20
218.60963529700001
 11
40.594589919599997
 21
218.6226570128
  0
LINE
  8
_0-0_0
  6
CONTINUOUS
 62
    7
 10
40.594589919599997
 20
218.6226570128
 11
40.599626182999998
 21
218.67435603230001
  0
LINE
  8
_0-0_0
  6
CONTINUOUS
 62
    7
 10
40.343457646800005
 20
219.04204662480001
 11
40.347705052199984
 21
219.05282205560002
  0
LINE
  8
_0-0_0
  6
CONTINUOUS
 62
    7
 10
40.347705052199984
 20
219.05282205560002
 11
40.388135050699987
 21
219.11618665400002
  0
LINE
  8
_0-0_0
  6
CONTINUOUS
 62
    7
 10
40.388135050699987
 20
219.11618665400002
 11
40.443715117399989
 21
219.1728468931
  0
LINE
  8
_0-0_0
  6
CONTINUOUS
 62
    7
 10
40.443715117399989
 20
219.1728468931
 11
40.478425108199986
 21
219.19683635310003
  0
LINE
  8
_0-0_0
  6
CONTINUOUS
 62
    7
 10
40.478425108199986
 20
219.19683635310003
 11
40.518280402199991
 21
219.2162176905
  0
LINE
  8
_0-0_0
  6
CONTINUOUS
 62
    7
 10
40.518280402199991
 20
219.2162176905
 11
40.563025019399987
 21
219.22913489770002
  0
LINE
  8
_0-0_0
  6
CONTINUOUS
 62
    7
 10
40.563025019399987
 20
219.22913489770002
 11
40.61111793409998
 21
219.23369276670002
  0
LINE
  8
_0-0_0
  6
CONTINUOUS
 62
    7
 10
40.61111793409998
 20
219.23369276670002
 11
40.659654942999992
 21
219.22904866120001
  0
LINE
  8
_0-0_0
  6
CONTINUOUS
 62
    7
 10
40.659654942999992
 20
219.22904866120001
 11
40.705649597199994
 21
219.2160502113
  0
LINE
  8
_0-0_0
  6
CONTINUOUS
 62
    7
 10
40.705649597199994
 20
219.2160502113
 11
40.747377650000004
 21
219.19659561650002
  0
LINE
  8
_0-0_0
  6
CONTINUOUS
 62
    7
 10
40.747377650000004
 20
219.19659561650002
 11
40.784404095599996
 21
219.17254160500002
  0
LINE
  8
_0-0_0
  6
CONTINUOUS
 62
    7
 10
40.784404095599996
 20
219.17254160500002
 11
40.845452488399985
 21
219.11577622200002
  0
LINE
  8
_0-0_0
  6
CONTINUOUS
 62
    7
 10
40.845452488399985
 20
219.11577622200002
 11
40.891995561999977
 21
219.05233308460001
  0
LINE
  8
_0-0_0
  6
CONTINUOUS
 62
    7
 10
40.891995561999977
 20
219.05233308460001
 11
40.936088647100007
 21
218.96238987780001
  0
LINE
  8
_0-0_0
  6
CONTINUOUS
 62
    7
 10
40.936088647100007
 20
218.96238987780001
 11
40.951958983800012
 21
218.90773802090001
  0
LINE
  8
_0-0_0
  6
CONTINUOUS
 62
    7
 10
40.962284632399985
 20
218.77164967270002
 11
40.960590280100007
 21
218.7711984332
  0
LINE
  8
_0-0_0
  6
CONTINUOUS
 62
    7
 10
40.968187456300001
 20
218.70712694850002
 11
40.963641825600007
 21
218.6615956025
  0
LINE
  8
_0-0_0
  6
CONTINUOUS
 62
    7
 10
40.963641825600007
 20
218.6615956025
 11
40.937949797800002
 21
218.5493572055
  0
LINE
  8
_0-0_0
  6
CONTINUOUS
 62
    7
 10
40.937949797800002
 20
218.5493572055
 11
40.895895335500001
 21
218.44001680670002
  0
LINE
  8
_0-0_0
  6
CONTINUOUS
 62
    7
 10
40.895895335500001
 20
218.44001680670002
 11
40.851142666899989
 21
218.3618162155
  0
LINE
  8
_0-0_0
  6
CONTINUOUS
 62
    7
 10
40.851142666899989
 20
218.3618162155
 11
40.791489507800009
 21
218.2901837325
  0
LINE
  8
_0-0_0
  6
CONTINUOUS
 62
    7
 10
40.791489507800009
 20
218.2901837325
 11
40.754506642999985
 21
218.2588794147
  0
LINE
  8
_0-0_0
  6
CONTINUOUS
 62
    7
 10
40.754506642999985
 20
218.2588794147
 11
40.711831650499988
 21
218.23278716800002
  0
LINE
  8
_0-0_0
  6
CONTINUOUS
 62
    7
 10
40.711831650499988
 20
218.23278716800002
 11
40.663408434800004
 21
218.21473845190002
  0
LINE
  8
_0-0_0
  6
CONTINUOUS
 62
    7
 10
40.663408434800004
 20
218.21473845190002
 11
40.611121019800009
 21
218.20817870510001
  0
LINE
  8
_0-0_0
  6
CONTINUOUS
 62
    7
 10
40.611121019800009
 20
218.20817870510001
 11
40.597365842599999
 21
218.20994639370002
  0
LINE
  8
_0-0_0
  6
CONTINUOUS
 62
    7
 10
40.974660502500001
 20
218.70037847200001
 11
40.974030948000006
 21
218.54668494410001
  0
LINE
  8
_0-0_0
  6
CONTINUOUS
 62
    7
 10
40.974030948000006
 20
218.54668494410001
 11
40.971966314599996
 21
218.31850176130001
  0
LINE
  8
_0-0_0
  6
CONTINUOUS
 62
    7
 10
40.971966314599996
 20
218.31850176130001
 11
40.969745416799981
 21
218.14228523120002
  0
LINE
  8
_0-0_0
  6
CONTINUOUS
 62
    7
 10
40.969745416799981
 20
218.14228523120002
 11
40.966717498700007
 21
217.98467992670001
  0
LINE
  8
_0-0_0
  6
CONTINUOUS
 62
    7
 10
40.966717498700007
 20
217.98467992670001
 11
40.962713839799989
 21
217.8271020569
  0
LINE
  8
_0-0_0
  6
CONTINUOUS
 62
    7
 10
40.962713839799989
 20
217.8271020569
 11
40.958163187499991
 21
217.6695128911
  0
LINE
  8
_0-0_0
  6
CONTINUOUS
 62
    7
 10
40.958163187499991
 20
217.6695128911
 11
40.959347559099996
 21
217.55492486470001
  0
LINE
  8
_0-0_0
  6
CONTINUOUS
 62
    7
 10
40.603508976400008
 20
217.4625089955
 11
40.640211714099991
 21
217.4622044738
  0
LINE
  8
_0-0_0
  6
CONTINUOUS
 62
    7
 10
40.640211714099991
 20
217.4622044738
 11
40.702639007500011
 21
217.4636080265
  0
LINE
  8
_0-0_0
  6
CONTINUOUS
 62
    7
 10
40.702639007500011
 20
217.4636080265
 11
40.762667254999997
 21
217.46687915200002
  0
LINE
  8
_0-0_0
  6
CONTINUOUS
 62
    7
 10
40.762667254999997
 20
217.46687915200002
 11
40.817989604800005
 21
217.4718921427
  0
LINE
  8
_0-0_0
  6
CONTINUOUS
 62
    7
 10
40.817989604800005
 20
217.4718921427
 11
40.866480049899991
 21
217.47845435230002
  0
LINE
  8
_0-0_0
  6
CONTINUOUS
 62
    7
 10
40.866480049899991
 20
217.47845435230002
 11
40.906275129699992
 21
217.48631359870001
  0
LINE
  8
_0-0_0
  6
CONTINUOUS
 62
    7
 10
40.906275129699992
 20
217.48631359870001
 11
40.93584554169999
 21
217.49516785540001
  0
LINE
  8
_0-0_0
  6
CONTINUOUS
 62
    7
 10
40.93584554169999
 20
217.49516785540001
 11
40.952356956399996
 21
217.503414687
  0
LINE
  8
_0-0_0
  6
CONTINUOUS
 62
    7
 10
40.952356956399996
 20
217.503414687
 11
40.957468622100009
 21
217.50926547750001
  0
LINE
  8
_0-0_0
  6
CONTINUOUS
 62
    7
 10
40.525489458500005
 20
222.9455177115
 11
40.527517960699981
 21
222.95028036510001
  0
LINE
  8
_0-0_0
  6
CONTINUOUS
 62
    7
 10
40.527517960699981
 20
222.95028036510001
 11
40.53648407610001
 21
222.95688388310001
  0
LINE
  8
_0-0_0
  6
CONTINUOUS
 62
    7
 10
40.53648407610001
 20
222.95688388310001
 11
40.5521826154
 21
222.96285397310001
  0
LINE
  8
_0-0_0
  6
CONTINUOUS
 62
    7
 10
40.5521826154
 20
222.96285397310001
 11
40.573879532299998
 21
222.9679114802
  0
LINE
  8
_0-0_0
  6
CONTINUOUS
 62
    7
 10
40.573879532299998
 20
222.9679114802
 11
40.600560303099996
 21
222.97181992110001
  0
LINE
  8
_0-0_0
  6
CONTINUOUS
 62
    7
 10
40.600560303099996
 20
222.97181992110001
 11
40.630977364699987
 21
222.97439654140001
  0
LINE
  8
_0-0_0
  6
CONTINUOUS
 62
    7
 10
40.630977364699987
 20
222.97439654140001
 11
40.663708449000012
 21
222.97552086120001
  0
LINE
  8
_0-0_0
  6
CONTINUOUS
 62
    7
 10
40.663708449000012
 20
222.97552086120001
 11
40.69722308690001
 21
222.9751403086
  0
LINE
  8
_0-0_0
  6
CONTINUOUS
 62
    7
 10
40.69722308690001
 20
222.9751403086
 11
40.729954171200006
 21
222.97327267780003
  0
LINE
  8
_0-0_0
  6
CONTINUOUS
 62
    7
 10
40.729954171200006
 20
222.97327267780003
 11
40.760371232699981
 21
222.97000529710002
  0
LINE
  8
_0-0_0
  6
CONTINUOUS
 62
    7
 10
40.760371232699981
 20
222.97000529710002
 11
40.787052003599996
 21
222.96549094560001
  0
LINE
  8
_0-0_0
  6
CONTINUOUS
 62
    7
 10
40.787052003599996
 20
222.96549094560001
 11
40.808748920499994
 21
222.9599407094
  0
LINE
  8
_0-0_0
  6
CONTINUOUS
 62
    7
 10
40.808748920499994
 20
222.9599407094
 11
40.824447459799984
 21
222.95361411140001
  0
LINE
  8
_0-0_0
  6
CONTINUOUS
 62
    7
 10
40.824447459799984
 20
222.95361411140001
 11
40.833413575199984
 21
222.94680697620001
  0
LINE
  8
_0-0_0
  6
CONTINUOUS
 62
    7
 10
40.833413575199984
 20
222.94680697620001
 11
40.835450181200002
 21
222.941839606
  0
LINE
  8
_0-0_0
  6
CONTINUOUS
 62
    7
 10
40.711899346899997
 20
206.29468857330002
 11
40.907595308999987
 21
206.29468857330002
  0
LINE
  8
_0-0_0
  6
CONTINUOUS
 62
    7
 10
40.534232547999977
 20
206.29468857330002
 11
40.711899346899997
 21
206.29468857330002
  0
LINE
  8
_0-0_0
  6
CONTINUOUS
 62
    7
 10
39.904335725599992
 20
206.29468857330002
 11
40.296398197299993
 21
206.29468857330002
  0
LINE
  8
_0-0_0
  6
CONTINUOUS
 62
    7
 10
39.925673370099986
 20
215.45947887580002
 11
39.892654973499987
 21
215.44762435310003
  0
LINE
  8
_0-0_0
  6
CONTINUOUS
 62
    7
 10
39.892654973499987
 20
215.44762435310003
 11
39.83973487999998
 21
215.42221850370001
  0
LINE
  8
_0-0_0
  6
CONTINUOUS
 62
    7
 10
39.83973487999998
 20
215.42221850370001
 11
39.794085096900005
 21
215.39085056340002
  0
LINE
  8
_0-0_0
  6
CONTINUOUS
 62
    7
 10
39.794085096900005
 20
215.39085056340002
 11
39.759912952299999
 21
215.35666767820001
  0
LINE
  8
_0-0_0
  6
CONTINUOUS
 62
    7
 10
39.759912952299999
 20
215.35666767820001
 11
39.735542988600002
 21
215.3183578199
  0
LINE
  8
_0-0_0
  6
CONTINUOUS
 62
    7
 10
39.735542988600002
 20
215.3183578199
 11
39.722893760999995
 21
215.2786127329
  0
LINE
  8
_0-0_0
  6
CONTINUOUS
 62
    7
 10
39.722893760999995
 20
215.2786127329
 11
39.722536278699977
 21
215.26122290930002
  0
LINE
  8
_0-0_0
  6
CONTINUOUS
 62
    7
 10
39.932534744199984
 20
215.37883263680001
 11
39.925673370099986
 21
215.45947887580002
  0
LINE
  8
_0-0_0
  6
CONTINUOUS
 62
    7
 10
39.961923994100005
 20
215.38681250880001
 11
39.932534744199984
 21
215.37883263680001
  0
LINE
  8
_0-0_0
  6
CONTINUOUS
 62
    7
 10
39.987721585799989
 20
215.5539915098
 11
39.968444715599986
 21
215.43173574570002
  0
LINE
  8
_0-0_0
  6
CONTINUOUS
 62
    7
 10
39.968444715599986
 20
215.43173574570002
 11
39.961923994100005
 21
215.38681250880001
  0
LINE
  8
_0-0_0
  6
CONTINUOUS
 62
    7
 10
40.017291309099988
 20
215.55943974230001
 11
39.987721585799989
 21
215.5539915098
  0
LINE
  8
_0-0_0
  6
CONTINUOUS
 62
    7
 10
40.030914558199981
 20
215.3995430141
 11
40.020804032699999
 21
215.51851287880001
  0
LINE
  8
_0-0_0
  6
CONTINUOUS
 62
    7
 10
40.020804032699999
 20
215.51851287880001
 11
40.017291309099988
 21
215.55943974230001
  0
LINE
  8
_0-0_0
  6
CONTINUOUS
 62
    7
 10
40.060646827799985
 20
215.4027110847
 11
40.038014847400007
 21
215.4004206571
  0
LINE
  8
_0-0_0
  6
CONTINUOUS
 62
    7
 10
40.038014847400007
 20
215.4004206571
 11
40.030914558199981
 21
215.3995430141
  0
LINE
  8
_0-0_0
  6
CONTINUOUS
 62
    7
 10
40.086663844499981
 20
215.56681204290001
 11
40.066797544999986
 21
215.44399612310002
  0
LINE
  8
_0-0_0
  6
CONTINUOUS
 62
    7
 10
40.066797544999986
 20
215.44399612310002
 11
40.060646827799985
 21
215.4027110847
  0
LINE
  8
_0-0_0
  6
CONTINUOUS
 62
    7
 10
40.11655058529999
 20
215.56781322810002
 11
40.086663844499981
 21
215.56681204290001
  0
LINE
  8
_0-0_0
  6
CONTINUOUS
 62
    7
 10
40.130374702599994
 20
215.40509876890002
 11
40.119667895100008
 21
215.53139052430001
  0
LINE
  8
_0-0_0
  6
CONTINUOUS
 62
    7
 10
40.119667895100008
 20
215.53139052430001
 11
40.11655058529999
 21
215.56781322810002
  0
LINE
  8
_0-0_0
  6
CONTINUOUS
 62
    7
 10
40.160410068000004
 20
215.40401508230002
 11
40.130374702599994
 21
215.40509876890002
  0
LINE
  8
_0-0_0
  6
CONTINUOUS
 62
    7
 10
40.186630734299996
 20
215.5652592923
 11
40.166472998699987
 21
215.44372175800001
  0
LINE
  8
_0-0_0
  6
CONTINUOUS
 62
    7
 10
40.166472998699987
 20
215.44372175800001
 11
40.160410068000004
 21
215.40401508230002
  0
LINE
  8
_0-0_0
  6
CONTINUOUS
 62
    7
 10
40.216818438499985
 20
215.5620386322
 11
40.186630734299996
 21
215.5652592923
  0
LINE
  8
_0-0_0
  6
CONTINUOUS
 62
    7
 10
40.230846242199988
 20
215.39646690730001
 11
40.220690058999992
 21
215.51664609650001
  0
LINE
  8
_0-0_0
  6
CONTINUOUS
 62
    7
 10
40.220690058999992
 20
215.51664609650001
 11
40.216818438499985
 21
215.5620386322
  0
LINE
  8
_0-0_0
  6
CONTINUOUS
 62
    7
 10
40.261196813299989
 20
215.3909615892
 11
40.230846242199988
 21
215.39646690730001
  0
LINE
  8
_0-0_0
  6
CONTINUOUS
 62
    7
 10
40.287632335399991
 20
215.54919185150001
 11
40.266439851200005
 21
215.42454019320002
  0
LINE
  8
_0-0_0
  6
CONTINUOUS
 62
    7
 10
40.266439851200005
 20
215.42454019320002
 11
40.261196813299989
 21
215.3909615892
  0
LINE
  8
_0-0_0
  6
CONTINUOUS
 62
    7
 10
40.318163454799986
 20
215.54115384470001
 11
40.294495789299987
 21
215.54752511480001
  0
LINE
  8
_0-0_0
  6
CONTINUOUS
 62
    7
 10
40.294495789299987
 20
215.54752511480001
 11
40.287632335399991
 21
215.54919185150001
  0
LINE
  8
_0-0_0
  6
CONTINUOUS
 62
    7
 10
40.3251446413
 20
215.4590612492
 11
40.320576034999988
 21
215.51287418360002
  0
LINE
  8
_0-0_0
  6
CONTINUOUS
 62
    7
 10
40.320576034999988
 20
215.51287418360002
 11
40.318163454799986
 21
215.54115384470001
  0
LINE
  8
_0-0_0
  6
CONTINUOUS
 62
    7
 10
40.559632834500007
 20
215.22874385850002
 11
40.557694484199999
 21
215.26273063990001
  0
LINE
  8
_0-0_0
  6
CONTINUOUS
 62
    7
 10
40.557694484199999
 20
215.26273063990001
 11
40.543089262999985
 21
215.3041404743
  0
LINE
  8
_0-0_0
  6
CONTINUOUS
 62
    7
 10
40.543089262999985
 20
215.3041404743
 11
40.517855323300012
 21
215.3422667371
  0
LINE
  8
_0-0_0
  6
CONTINUOUS
 62
    7
 10
40.517855323300012
 20
215.3422667371
 11
40.481309030099993
 21
215.37871064410001
  0
LINE
  8
_0-0_0
  6
CONTINUOUS
 62
    7
 10
40.481309030099993
 20
215.37871064410001
 11
40.435717889599999
 21
215.41080758660001
  0
LINE
  8
_0-0_0
  6
CONTINUOUS
 62
    7
 10
40.435717889599999
 20
215.41080758660001
 11
40.380125916099985
 21
215.43897253660001
  0
LINE
  8
_0-0_0
  6
CONTINUOUS
 62
    7
 10
40.380125916099985
 20
215.43897253660001
 11
40.3251446413
 21
215.4590612492
  0
LINE
  8
_0-0_0
  6
CONTINUOUS
 62
    7
 10
50.100248618999984
 20
213.41861216220002
 11
49.820792269599991
 21
213.05817060610002
  0
LINE
  8
_0-0_0
  6
CONTINUOUS
 62
    7
 10
49.80108945500001
 20
213.05817060610002
 11
49.820792269599991
 21
213.05817060610002
  0
LINE
  8
_0-0_0
  6
CONTINUOUS
 62
    7
 10
40.841050812099979
 20
213.05817060610002
 11
40.821347997599986
 21
213.05817060610002
  0
LINE
  8
_0-0_0
  6
CONTINUOUS
 62
    7
 10
40.541651478399984
 20
213.41892193200002
 11
40.821347997599986
 21
213.05817060610002
  0
LINE
  8
_0-0_0
  6
CONTINUOUS
 62
    7
 10
50.179010043000005
 20
213.83511205420001
 11
50.177169923099996
 21
213.79623635690001
  0
LINE
  8
_0-0_0
  6
CONTINUOUS
 62
    7
 10
50.177169923099996
 20
213.79623635690001
 11
50.163882313300007
 21
213.72781435550002
  0
LINE
  8
_0-0_0
  6
CONTINUOUS
 62
    7
 10
50.163882313300007
 20
213.72781435550002
 11
50.14146960619999
 21
213.66321727580001
  0
LINE
  8
_0-0_0
  6
CONTINUOUS
 62
    7
 10
50.14146960619999
 20
213.66321727580001
 11
50.127675656399987
 21
213.63131540580002
  0
LINE
  8
_0-0_0
  6
CONTINUOUS
 62
    7
 10
50.127675656399987
 20
213.63131540580002
 11
50.114894338699997
 21
213.6040804669
  0
LINE
  8
_0-0_0
  6
CONTINUOUS
 62
    7
 10
50.114894338699997
 20
213.6040804669
 11
50.1066397182
 21
213.58700219830001
  0
LINE
  8
_0-0_0
  6
CONTINUOUS
 62
    7
 10
50.1066397182
 20
213.58700219830001
 11
50.100839767099984
 21
213.5746765575
  0
LINE
  8
_0-0_0
  6
CONTINUOUS
 62
    7
 10
50.100839767099984
 20
213.5746765575
 11
50.098248136099983
 21
213.56768018990002
  0
LINE
  8
_0-0_0
  6
CONTINUOUS
 62
    7
 10
40.4631302242
 20
213.83511205420001
 11
40.464970344099982
 21
213.79623635690001
  0
LINE
  8
_0-0_0
  6
CONTINUOUS
 62
    7
 10
40.464970344099982
 20
213.79623635690001
 11
40.478257953799982
 21
213.72781435550002
  0
LINE
  8
_0-0_0
  6
CONTINUOUS
 62
    7
 10
40.478257953799982
 20
213.72781435550002
 11
40.500670660899999
 21
213.66321727580001
  0
LINE
  8
_0-0_0
  6
CONTINUOUS
 62
    7
 10
40.500670660899999
 20
213.66321727580001
 11
40.514464610700003
 21
213.63131540580002
  0
LINE
  8
_0-0_0
  6
CONTINUOUS
 62
    7
 10
40.514464610700003
 20
213.63131540580002
 11
40.527245928399992
 21
213.6040804669
  0
LINE
  8
_0-0_0
  6
CONTINUOUS
 62
    7
 10
40.527245928399992
 20
213.6040804669
 11
40.535500548899989
 21
213.58700219830001
  0
LINE
  8
_0-0_0
  6
CONTINUOUS
 62
    7
 10
40.535500548899989
 20
213.58700219830001
 11
40.541300500099993
 21
213.5746765575
  0
LINE
  8
_0-0_0
  6
CONTINUOUS
 62
    7
 10
40.541300500099993
 20
213.5746765575
 11
40.543892131099994
 21
213.56768018990002
  0
LINE
  8
_0-0_0
  6
CONTINUOUS
 62
    7
 10
50.173185080899998
 20
214.64762696760002
 11
50.178953798900011
 21
213.84088294220001
  0
LINE
  8
_0-0_0
  6
CONTINUOUS
 62
    7
 10
50.178953798900011
 20
213.84088294220001
 11
50.179010043000005
 21
213.83511205420001
  0
ARC
  8
_0-0_0
  6
CONTINUOUS
 62
    7
 10
50.113410467499989
 20
214.65080850500001
 40
0.059859223104847
 50
356.95327483789998
 51
52.090838044099996
  0
ARC
  8
_0-0_0
  6
CONTINUOUS
 62
    7
 10
50.024665572799989
 20
214.54084616130001
 40
0.2011588262141665
 50
51.391181610399997
 51
70.447561993899996
  0
ARC
  8
_0-0_0
  6
CONTINUOUS
 62
    7
 10
40.6174746943
 20
214.54084616130001
 40
0.201158826213294
 50
109.5524380061
 51
128.60881838969999
  0
ARC
  8
_0-0_0
  6
CONTINUOUS
 62
    7
 10
40.528729799699988
 20
214.65080850500001
 40
0.0598592231048947
 50
127.9091619559
 51
183.046725162
  0
LINE
  8
_0-0_0
  6
CONTINUOUS
 62
    7
 10
40.468955186199992
 20
214.64762696760002
 11
40.463186468199979
 21
213.84088294220001
  0
LINE
  8
_0-0_0
  6
CONTINUOUS
 62
    7
 10
40.463186468199979
 20
213.84088294220001
 11
40.4631302242
 21
213.83511205420001
  0
ARC
  8
_0-0_0
  6
CONTINUOUS
 62
    7
 10
45.666596166700003
 20
309.54893911229999
 40
96.130908269247442
 50
266.9447655893
 51
269.79405972130002
  0
ARC
  8
_0-0_0
  6
CONTINUOUS
 62
    7
 10
44.975544100200011
 20
309.54893912310001
 40
96.130908280063565
 50
270.20594027880009
 51
273.05516642730004
  0
ARC
  8
_0-0_0
  6
CONTINUOUS
 62
    7
 10
49.714989983799995
 20
213.09743831170002
 40
0.089691235215276
 50
269.9389453192
 51
334.035776177
  0
LINE
  8
_0-0_0
  6
CONTINUOUS
 62
    7
 10
45.321070133599989
 20
213.00282906150002
 11
45.993450642799985
 21
213.00347063140001
  0
LINE
  8
_0-0_0
  6
CONTINUOUS
 62
    7
 10
45.993450642799985
 20
213.00347063140001
 11
47.338211558199987
 21
213.00486872760001
  0
LINE
  8
_0-0_0
  6
CONTINUOUS
 62
    7
 10
47.338211558199987
 20
213.00486872760001
 11
48.589501986399995
 21
213.006316446
  0
LINE
  8
_0-0_0
  6
CONTINUOUS
 62
    7
 10
48.589501986399995
 20
213.006316446
 11
49.714894408399999
 21
213.00774712750001
  0
LINE
  8
_0-0_0
  6
CONTINUOUS
 62
    7
 10
45.321073001799988
 20
218.83120205340001
 11
45.410747504999989
 21
218.83027398360002
  0
LINE
  8
_0-0_0
  6
CONTINUOUS
 62
    7
 10
45.410747504999989
 20
218.83027398360002
 11
46.058773369699992
 21
218.82516856090001
  0
LINE
  8
_0-0_0
  6
CONTINUOUS
 62
    7
 10
46.058773369699992
 20
218.82516856090001
 11
46.706621807200008
 21
218.8229229234
  0
LINE
  8
_0-0_0
  6
CONTINUOUS
 62
    7
 10
46.706621807200008
 20
218.8229229234
 11
47.353992440199988
 21
218.82364535760001
  0
LINE
  8
_0-0_0
  6
CONTINUOUS
 62
    7
 10
47.353992440199988
 20
218.82364535760001
 11
48.00058455300001
 21
218.8275692169
  0
LINE
  8
_0-0_0
  6
CONTINUOUS
 62
    7
 10
48.00058455300001
 20
218.8275692169
 11
48.482186753500002
 21
218.83273284470002
  0
LINE
  8
_0-0_0
  6
CONTINUOUS
 62
    7
 10
48.482186753500002
 20
218.83273284470002
 11
48.963736977699995
 21
218.83856621070001
  0
LINE
  8
_0-0_0
  6
CONTINUOUS
 62
    7
 10
48.963736977699995
 20
218.83856621070001
 11
49.445918775199999
 21
218.84313871490002
  0
LINE
  8
_0-0_0
  6
CONTINUOUS
 62
    7
 10
49.445918775199999
 20
218.84313871490002
 11
49.447456182400003
 21
218.84314921100002
  0
LINE
  8
_0-0_0
  6
CONTINUOUS
 62
    7
 10
49.456199009199992
 20
218.8771440726
 11
49.457503360899977
 21
218.86180928350001
  0
LINE
  8
_0-0_0
  6
CONTINUOUS
 62
    7
 10
49.457503360899977
 20
218.86180928350001
 11
49.458388669100003
 21
218.85539498770001
  0
LINE
  8
_0-0_0
  6
CONTINUOUS
 62
    7
 10
49.458388669100003
 20
218.85539498770001
 11
49.459287532899992
 21
218.85200546610002
  0
LINE
  8
_0-0_0
  6
CONTINUOUS
 62
    7
 10
49.459287532899992
 20
218.85200546610002
 11
49.460274273899984
 21
218.8501693602
  0
LINE
  8
_0-0_0
  6
CONTINUOUS
 62
    7
 10
49.460274273899984
 20
218.8501693602
 11
49.46155773289999
 21
218.84897600990001
  0
LINE
  8
_0-0_0
  6
CONTINUOUS
 62
    7
 10
49.46155773289999
 20
218.84897600990001
 11
49.463684651800008
 21
218.84804722070001
  0
LINE
  8
_0-0_0
  6
CONTINUOUS
 62
    7
 10
49.463684651800008
 20
218.84804722070001
 11
49.471852224599985
 21
218.84692082020001
  0
LINE
  8
_0-0_0
  6
CONTINUOUS
 62
    7
 10
49.471852224599985
 20
218.84692082020001
 11
49.50298253599999
 21
218.84431697320002
  0
LINE
  8
_0-0_0
  6
CONTINUOUS
 62
    7
 10
49.50298253599999
 20
218.84431697320002
 11
49.529533189000006
 21
218.839784775
  0
LINE
  8
_0-0_0
  6
CONTINUOUS
 62
    7
 10
49.529533189000006
 20
218.839784775
 11
49.549264108599999
 21
218.83316020310002
  0
LINE
  8
_0-0_0
  6
CONTINUOUS
 62
    7
 10
49.549264108599999
 20
218.83316020310002
 11
49.553469308199993
 21
218.8297066719
  0
ARC
  8
_0-0_0
  6
CONTINUOUS
 62
    7
 10
-116.74280259969998
 20
211.64957886760001
 40
166.4570565238148
 50
1.7734317753
 51
2.4552126203000002
  0
ARC
  8
_0-0_0
  6
CONTINUOUS
 62
    7
 10
49.403986838700007
 20
218.8623063407
 40
0.0542795452848151
 50
339.38916697780002
 51
15.864167955399996
  0
LINE
  8
_0-0_0
  6
CONTINUOUS
 62
    7
 10
49.592469375999997
 20
222.8453904836
 11
49.593093811399996
 21
222.84551453330002
  0
ARC
  8
_0-0_0
  6
CONTINUOUS
 62
    7
 10
49.618518579199986
 20
218.7671734923
 40
0.070852077813903
 50
220.47419459069999
 51
323.97539123809997
  0
LINE
  8
_0-0_0
  6
CONTINUOUS
 62
    7
 10
49.583263207899989
 20
218.94626702800002
 11
49.604457371199999
 21
218.94751708370001
  0
LINE
  8
_0-0_0
  6
CONTINUOUS
 62
    7
 10
49.604457371199999
 20
218.94751708370001
 11
49.627416831700003
 21
218.94682990940001
  0
LINE
  8
_0-0_0
  6
CONTINUOUS
 62
    7
 10
49.627416831700003
 20
218.94682990940001
 11
49.649653575599984
 21
218.94427997120002
  0
LINE
  8
_0-0_0
  6
CONTINUOUS
 62
    7
 10
49.649653575599984
 20
218.94427997120002
 11
49.66875790680001
 21
218.94014359430003
  0
LINE
  8
_0-0_0
  6
CONTINUOUS
 62
    7
 10
49.66875790680001
 20
218.94014359430003
 11
49.682659574399992
 21
218.93486901950001
  0
LINE
  8
_0-0_0
  6
CONTINUOUS
 62
    7
 10
49.682659574399992
 20
218.93486901950001
 11
49.689852117100003
 21
218.9290278286
  0
LINE
  8
_0-0_0
  6
CONTINUOUS
 62
    7
 10
49.689852117100003
 20
218.9290278286
 11
49.690651878199986
 21
218.92599951490001
  0
LINE
  8
_0-0_0
  6
CONTINUOUS
 62
    7
 10
49.5514748123
 20
218.93535166400002
 11
49.554917456599981
 21
218.93869232770001
  0
LINE
  8
_0-0_0
  6
CONTINUOUS
 62
    7
 10
49.554917456599981
 20
218.93869232770001
 11
49.5661310582
 21
218.9432152052
  0
LINE
  8
_0-0_0
  6
CONTINUOUS
 62
    7
 10
49.5661310582
 20
218.9432152052
 11
49.583263207899989
 21
218.94626702800002
  0
ARC
  8
_0-0_0
  6
CONTINUOUS
 62
    7
 10
49.619503766299999
 20
218.7508625074
 40
0.0709543614676049
 50
221.47078824660002
 51
316.32610031949997
  0
LINE
  8
_0-0_0
  6
CONTINUOUS
 62
    7
 10
49.639039027699994
 20
218.68269342760001
 11
49.655166802499991
 21
218.68608545970002
  0
LINE
  8
_0-0_0
  6
CONTINUOUS
 62
    7
 10
49.655166802499991
 20
218.68608545970002
 11
49.663513024999986
 21
218.68947954160001
  0
ARC
  8
_0-0_0
  6
CONTINUOUS
 62
    7
 10
40.927150283299994
 20
213.09743831170002
 40
0.0896912352153061
 50
205.964223823
 51
270.0610546808
  0
LINE
  8
_0-0_0
  6
CONTINUOUS
 62
    7
 10
45.321070133599989
 20
213.00282906150002
 11
44.648689624399992
 21
213.00347063140001
  0
LINE
  8
_0-0_0
  6
CONTINUOUS
 62
    7
 10
44.648689624399992
 20
213.00347063140001
 11
43.303928708900003
 21
213.00486872760001
  0
LINE
  8
_0-0_0
  6
CONTINUOUS
 62
    7
 10
43.303928708900003
 20
213.00486872760001
 11
42.052638280699995
 21
213.006316446
  0
LINE
  8
_0-0_0
  6
CONTINUOUS
 62
    7
 10
42.052638280699995
 20
213.006316446
 11
40.92724585869999
 21
213.00774712750001
  0
LINE
  8
_0-0_0
  6
CONTINUOUS
 62
    7
 10
45.321070015000004
 20
212.95880154580001
 11
45.321070015000004
 21
212.9569002675
  0
LINE
  8
_0-0_0
  6
CONTINUOUS
 62
    7
 10
45.321067265300002
 20
218.83120205340001
 11
45.231392762199988
 21
218.83027398360002
  0
LINE
  8
_0-0_0
  6
CONTINUOUS
 62
    7
 10
45.231392762199988
 20
218.83027398360002
 11
44.583366897399998
 21
218.82516856090001
  0
LINE
  8
_0-0_0
  6
CONTINUOUS
 62
    7
 10
44.583366897399998
 20
218.82516856090001
 11
43.935518459899981
 21
218.8229229234
  0
LINE
  8
_0-0_0
  6
CONTINUOUS
 62
    7
 10
43.935518459899981
 20
218.8229229234
 11
43.288147826999989
 21
218.82364535760001
  0
LINE
  8
_0-0_0
  6
CONTINUOUS
 62
    7
 10
43.288147826999989
 20
218.82364535760001
 11
42.641555714099979
 21
218.8275692169
  0
LINE
  8
_0-0_0
  6
CONTINUOUS
 62
    7
 10
42.641555714099979
 20
218.8275692169
 11
42.159953513599987
 21
218.83273284470002
  0
LINE
  8
_0-0_0
  6
CONTINUOUS
 62
    7
 10
42.159953513599987
 20
218.83273284470002
 11
41.678403289399995
 21
218.83856621070001
  0
LINE
  8
_0-0_0
  6
CONTINUOUS
 62
    7
 10
41.678403289399995
 20
218.83856621070001
 11
41.19622149189999
 21
218.84313871490002
  0
LINE
  8
_0-0_0
  6
CONTINUOUS
 62
    7
 10
41.19622149189999
 20
218.84313871490002
 11
41.194684084699986
 21
218.84314921100002
  0
ARC
  8
_0-0_0
  6
CONTINUOUS
 62
    7
 10
172.93063657729999
 20
212.92494175100001
 40
131.97989853443079
 50
177.4571911996
 51
178.2402500872
  0
LINE
  8
_0-0_0
  6
CONTINUOUS
 62
    7
 10
41.185941257999986
 20
218.8771440726
 11
41.1846369063
 21
218.86180928350001
  0
LINE
  8
_0-0_0
  6
CONTINUOUS
 62
    7
 10
41.1846369063
 20
218.86180928350001
 11
41.183751598100002
 21
218.85539498770001
  0
LINE
  8
_0-0_0
  6
CONTINUOUS
 62
    7
 10
41.183751598100002
 20
218.85539498770001
 11
41.182852734299985
 21
218.85200546610002
  0
LINE
  8
_0-0_0
  6
CONTINUOUS
 62
    7
 10
41.182852734299985
 20
218.85200546610002
 11
41.181865993200006
 21
218.8501693602
  0
LINE
  8
_0-0_0
  6
CONTINUOUS
 62
    7
 10
41.181865993200006
 20
218.8501693602
 11
41.180582534299987
 21
218.84897600990001
  0
LINE
  8
_0-0_0
  6
CONTINUOUS
 62
    7
 10
41.180582534299987
 20
218.84897600990001
 11
41.178455615299981
 21
218.84804722070001
  0
LINE
  8
_0-0_0
  6
CONTINUOUS
 62
    7
 10
41.178455615299981
 20
218.84804722070001
 11
41.170288042500005
 21
218.84692082020001
  0
LINE
  8
_0-0_0
  6
CONTINUOUS
 62
    7
 10
41.170288042500005
 20
218.84692082020001
 11
41.139157731199987
 21
218.84431697320002
  0
LINE
  8
_0-0_0
  6
CONTINUOUS
 62
    7
 10
41.139157731199987
 20
218.84431697320002
 11
41.112607078099984
 21
218.839784775
  0
LINE
  8
_0-0_0
  6
CONTINUOUS
 62
    7
 10
41.112607078099984
 20
218.839784775
 11
41.09287615849999
 21
218.83316020310002
  0
LINE
  8
_0-0_0
  6
CONTINUOUS
 62
    7
 10
41.09287615849999
 20
218.83316020310002
 11
41.088670958899996
 21
218.8297066719
  0
ARC
  8
_0-0_0
  6
CONTINUOUS
 62
    7
 10
41.238153428499999
 20
218.8623063407
 40
0.0542795452845558
 50
164.13583204459999
 51
200.61083302230003
  0
LINE
  8
_0-0_0
  6
CONTINUOUS
 62
    7
 10
41.049667553099994
 20
222.84539114670002
 11
41.048976292399999
 21
222.84552847180001
  0
ARC
  8
_0-0_0
  6
CONTINUOUS
 62
    7
 10
41.023621687900004
 20
218.7671734923
 40
0.0708520778138973
 50
216.0246087619
 51
319.52580540930001
  0
LINE
  8
_0-0_0
  6
CONTINUOUS
 62
    7
 10
41.058877059299988
 20
218.94626702800002
 11
41.037682895999978
 21
218.94751708370001
  0
LINE
  8
_0-0_0
  6
CONTINUOUS
 62
    7
 10
41.037682895999978
 20
218.94751708370001
 11
41.014723435399986
 21
218.94682990940001
  0
LINE
  8
_0-0_0
  6
CONTINUOUS
 62
    7
 10
41.014723435399986
 20
218.94682990940001
 11
40.992486691500005
 21
218.94427997120002
  0
LINE
  8
_0-0_0
  6
CONTINUOUS
 62
    7
 10
40.992486691500005
 20
218.94427997120002
 11
40.973382360299979
 21
218.94014359430003
  0
LINE
  8
_0-0_0
  6
CONTINUOUS
 62
    7
 10
40.973382360299979
 20
218.94014359430003
 11
40.959480692699998
 21
218.93486901950001
  0
LINE
  8
_0-0_0
  6
CONTINUOUS
 62
    7
 10
40.959480692699998
 20
218.93486901950001
 11
40.952288149999987
 21
218.9290278286
  0
LINE
  8
_0-0_0
  6
CONTINUOUS
 62
    7
 10
40.952288149999987
 20
218.9290278286
 11
40.951488388900003
 21
218.92599951490001
  0
LINE
  8
_0-0_0
  6
CONTINUOUS
 62
    7
 10
41.090665454799989
 20
218.93535166400002
 11
41.087222810599997
 21
218.93869232770001
  0
LINE
  8
_0-0_0
  6
CONTINUOUS
 62
    7
 10
41.087222810599997
 20
218.93869232770001
 11
41.07600920889999
 21
218.9432152052
  0
LINE
  8
_0-0_0
  6
CONTINUOUS
 62
    7
 10
41.07600920889999
 20
218.9432152052
 11
41.058877059299988
 21
218.94626702800002
  0
ARC
  8
_0-0_0
  6
CONTINUOUS
 62
    7
 10
41.02263650079999
 20
218.7508625074
 40
0.0709543614676069
 50
223.6738996805
 51
318.52921175350002
  0
LINE
  8
_0-0_0
  6
CONTINUOUS
 62
    7
 10
41.003101239399996
 20
218.68269342760001
 11
40.986973464599998
 21
218.68608545970002
  0
LINE
  8
_0-0_0
  6
CONTINUOUS
 62
    7
 10
40.986973464599998
 20
218.68608545970002
 11
40.978627242100004
 21
218.68947954160001
  0
LINE
  8
_0-0_0
  6
CONTINUOUS
 62
    7
 10
49.67691838319999
 20
215.2844562459
 11
49.68607261759999
 21
215.28536693870001
  0
LINE
  8
_0-0_0
  6
CONTINUOUS
 62
    7
 10
49.68607261759999
 20
215.28536693870001
 11
49.693895597800008
 21
215.28379819850002
  0
LINE
  8
_0-0_0
  6
CONTINUOUS
 62
    7
 10
40.948298994999988
 20
215.28380941700001
 11
40.956066578399998
 21
215.28536700490002
  0
LINE
  8
_0-0_0
  6
CONTINUOUS
 62
    7
 10
40.956066578399998
 20
215.28536700490002
 11
40.965006815399988
 21
215.2844776135
  0
LINE
  8
_0-0_0
  6
CONTINUOUS
 62
    7
 10
40.564412368099994
 20
214.9377592557
 11
40.564162902899994
 21
214.93756462520003
  0
LINE
  8
_0-0_0
  6
CONTINUOUS
 62
    7
 10
40.564162902899994
 20
214.93756462520003
 11
40.563946499599979
 21
214.93643831430001
  0
LINE
  8
_0-0_0
  6
CONTINUOUS
 62
    7
 10
40.564241644499987
 20
215.05756707800001
 11
40.565847760099984
 21
215.0596419245
  0
LINE
  8
_0-0_0
  6
CONTINUOUS
 62
    7
 10
50.078131992900012
 20
214.93642084620001
 11
50.077683109799978
 21
214.937836417
  0
LINE
  8
_0-0_0
  6
CONTINUOUS
 62
    7
 10
50.076525819199986
 20
215.0597775711
 11
50.077597767599997
 21
215.05908695150001
  0
LINE
  8
_0-0_0
  6
CONTINUOUS
 62
    7
 10
50.077597767599997
 20
215.05908695150001
 11
50.0781146578
 21
215.0575790961
  0
ARC
  8
_0-0_0
  6
CONTINUOUS
 62
    7
 10
50.309045582900012
 20
218.6755133643
 40
0.2631100357847713
 50
66.904774483500006
 51
191.37808293769999
  0
LINE
  8
_0-0_0
  6
CONTINUOUS
 62
    7
 10
50.434650170400005
 20
218.90599341090001
 11
50.444724905599998
 21
218.90080114060001
  0
ARC
  8
_0-0_0
  6
CONTINUOUS
 62
    7
 10
50.307913801899986
 20
218.67538690870001
 40
0.3039136282673723
 50
345.67517820099999
 51
211.05953004840003
  0
LINE
  8
_0-0_0
  6
CONTINUOUS
 62
    7
 10
50.0177473631
 20
218.4011218917
 11
50.034136428199986
 21
218.40052471220002
  0
LINE
  8
_0-0_0
  6
CONTINUOUS
 62
    7
 10
50.034136428199986
 20
218.40052471220002
 11
50.047031829499986
 21
218.39995037810002
  0
ARC
  8
_0-0_0
  6
CONTINUOUS
 62
    7
 10
50.050578648699997
 20
218.76216249240002
 40
0.3703229359786142
 50
53.2533226738
 51
256.39288715599997
  0
LINE
  8
_0-0_0
  6
CONTINUOUS
 62
    7
 10
49.968987564200006
 20
218.40170283030002
 11
49.968494678199988
 21
218.40166994130001
  0
LINE
  8
_0-0_0
  6
CONTINUOUS
 62
    7
 10
49.968494678199988
 20
218.40166994130001
 11
49.964475286199985
 21
218.40222459600002
  0
LINE
  8
_0-0_0
  6
CONTINUOUS
 62
    7
 10
49.963455447900003
 20
218.402233854
 11
49.963541106200012
 21
218.4022121365
  0
LINE
  8
_0-0_0
  6
CONTINUOUS
 62
    7
 10
49.963541106200012
 20
218.4022121365
 11
49.967772184799998
 21
218.40197585060002
  0
ARC
  8
_0-0_0
  6
CONTINUOUS
 62
    7
 10
50.046375655499986
 20
218.42568375480002
 40
0.0475567721947176
 50
211.41253128069999
 51
271.44796123880002
  0
ARC
  8
_0-0_0
  6
CONTINUOUS
 62
    7
 10
40.334554196499994
 20
218.67484072280001
 40
0.262663719024721
 50
345.5745855925
 51
88.834773716299992
  0
LINE
  8
_0-0_0
  6
CONTINUOUS
 62
    7
 10
40.207490489399987
 20
218.90599361320002
 11
40.197415361499992
 21
218.90080114060001
  0
ARC
  8
_0-0_0
  6
CONTINUOUS
 62
    7
 10
40.334228172999985
 20
218.67538846030001
 40
0.3039127068917735
 50
328.94670948179999
 51
194.35139823739999
  0
ARC
  8
_0-0_0
  6
CONTINUOUS
 62
    7
 10
40.591561618399993
 20
218.76216249240002
 40
0.3703229359786142
 50
283.60711284400003
 51
126.7466773262
  0
ARC
  8
_0-0_0
  6
CONTINUOUS
 62
    7
 10
40.688997106300008
 20
216.42538704020001
 40
1.976794314949968
 50
91.397605754099999
 51
92.723057050799994
  0
LINE
  8
_0-0_0
  6
CONTINUOUS
 62
    7
 10
40.673153080299983
 20
218.40170280520002
 11
40.673645588900001
 21
218.40166994130001
  0
LINE
  8
_0-0_0
  6
CONTINUOUS
 62
    7
 10
40.673645588900001
 20
218.40166994130001
 11
40.677664980999992
 21
218.40222459600002
  0
LINE
  8
_0-0_0
  6
CONTINUOUS
 62
    7
 10
40.678684819300003
 20
218.402233854
 11
40.678599160999994
 21
218.4022121365
  0
LINE
  8
_0-0_0
  6
CONTINUOUS
 62
    7
 10
40.678599160999994
 20
218.4022121365
 11
40.674369459199994
 21
218.40197592750002
  0
ARC
  8
_0-0_0
  6
CONTINUOUS
 62
    7
 10
40.595669145300008
 20
218.42590330000002
 40
0.0477739416892283
 50
268.67314936600002
 51
329.02386350350002
  0
POINT
  8
_0-0_0
 62
    7
 10
50.930041580699992
 20
214.79105583090001
  0
POINT
  8
_0-0_0
 62
    7
 10
39.712095169099996
 20
214.79105583090001
  0
INSERT
  2
-002-_D_1
  8
_0-0_0
 10
-5.9000000000000057
 20
8.8000000000000114
 41
1
 42
1
 50
0
  0
LINE
  8
_0-0_0
  6
CONTINUOUS
 62
    7
 10
93.031695816899997
 20
214.0954061756
 11
83.539510658200001
 21
214.76026907370002
  0
ARC
  8
_0-0_0
  6
CONTINUOUS
 62
    7
 10
83.97082365739999
 20
214.76211605830002
 40
0.4204636580095629
 50
111.6524536151
 51
131.94404401610001
  0
LINE
  8
_0-0_0
  6
CONTINUOUS
 62
    7
 10
83.50201146949999
 20
215.93201851220002
 11
83.378494389599993
 21
215.87164129980002
  0
LINE
  8
_0-0_0
  6
CONTINUOUS
 62
    7
 10
83.378494389599993
 20
215.87164129980002
 11
83.2807320852
 21
215.81639980290001
  0
LINE
  8
_0-0_0
  6
CONTINUOUS
 62
    7
 10
83.2807320852
 20
215.81639980290001
 11
83.20853558959999
 21
215.76586766360001
  0
LINE
  8
_0-0_0
  6
CONTINUOUS
 62
    7
 10
83.20853558959999
 20
215.76586766360001
 11
83.152396193099989
 21
215.7208176421
  0
LINE
  8
_0-0_0
  6
CONTINUOUS
 62
    7
 10
83.152396193099989
 20
215.7208176421
 11
83.103780232199995
 21
215.67746963420001
  0
LINE
  8
_0-0_0
  6
CONTINUOUS
 62
    7
 10
83.103780232199995
 20
215.67746963420001
 11
83.068626644199995
 21
215.6432291248
  0
LINE
  8
_0-0_0
  6
CONTINUOUS
 62
    7
 10
83.068626644199995
 20
215.6432291248
 11
83.031822562299993
 21
215.60435064160001
  0
LINE
  8
_0-0_0
  6
CONTINUOUS
 62
    7
 10
83.031822562299993
 20
215.60435064160001
 11
82.982208490799991
 21
215.5462044109
  0
LINE
  8
_0-0_0
  6
CONTINUOUS
 62
    7
 10
82.982208490799991
 20
215.5462044109
 11
82.9382207429
 21
215.48809418320002
  0
LINE
  8
_0-0_0
  6
CONTINUOUS
 62
    7
 10
82.9382207429
 20
215.48809418320002
 11
82.890555395599989
 21
215.4163338054
  0
LINE
  8
_0-0_0
  6
CONTINUOUS
 62
    7
 10
82.890555395599989
 20
215.4163338054
 11
82.883974227699994
 21
215.40465995950001
  0
LINE
  8
_0-0_0
  6
CONTINUOUS
 62
    7
 10
83.815760028099987
 20
215.1528811334
 11
84.095146955199993
 21
215.29284777070001
  0
LINE
  8
_0-0_0
  6
CONTINUOUS
 62
    7
 10
84.095146955199993
 20
215.29284777070001
 11
84.370061431899998
 21
215.43965412580002
  0
LINE
  8
_0-0_0
  6
CONTINUOUS
 62
    7
 10
84.370061431899998
 20
215.43965412580002
 11
84.636036615599991
 21
215.60014053810002
  0
LINE
  8
_0-0_0
  6
CONTINUOUS
 62
    7
 10
84.636036615599991
 20
215.60014053810002
 11
84.889690430199991
 21
215.77903959930001
  0
LINE
  8
_0-0_0
  6
CONTINUOUS
 62
    7
 10
84.889690430199991
 20
215.77903959930001
 11
85.132102255299998
 21
215.9723092671
  0
LINE
  8
_0-0_0
  6
CONTINUOUS
 62
    7
 10
85.132102255299998
 20
215.9723092671
 11
85.362830040199995
 21
216.17853911670002
  0
LINE
  8
_0-0_0
  6
CONTINUOUS
 62
    7
 10
85.362830040199995
 20
216.17853911670002
 11
85.580832118899991
 21
216.3974355288
  0
LINE
  8
_0-0_0
  6
CONTINUOUS
 62
    7
 10
85.580832118899991
 20
216.3974355288
 11
85.785317588699996
 21
216.62831607460001
  0
LINE
  8
_0-0_0
  6
CONTINUOUS
 62
    7
 10
85.785317588699996
 20
216.62831607460001
 11
85.9757561686
 21
216.87026822780001
  0
LINE
  8
_0-0_0
  6
CONTINUOUS
 62
    7
 10
85.9757561686
 20
216.87026822780001
 11
86.15201929429999
 21
217.12219206500001
  0
LINE
  8
_0-0_0
  6
CONTINUOUS
 62
    7
 10
86.15201929429999
 20
217.12219206500001
 11
86.312832610000001
 21
217.3834418902
  0
LINE
  8
_0-0_0
  6
CONTINUOUS
 62
    7
 10
86.312832610000001
 20
217.3834418902
 11
86.45422129859999
 21
217.65455177310002
  0
LINE
  8
_0-0_0
  6
CONTINUOUS
 62
    7
 10
86.45422129859999
 20
217.65455177310002
 11
86.581217419399991
 21
217.93276889190003
  0
LINE
  8
_0-0_0
  6
CONTINUOUS
 62
    7
 10
86.581217419399991
 20
217.93276889190003
 11
86.701016187299999
 21
218.2145371645
  0
LINE
  8
_0-0_0
  6
CONTINUOUS
 62
    7
 10
86.162494379599991
 20
218.429968938
 11
86.040188905400001
 21
218.18724584420002
  0
LINE
  8
_0-0_0
  6
CONTINUOUS
 62
    7
 10
86.040188905400001
 20
218.18724584420002
 11
85.911996492599997
 21
217.94848629910001
  0
LINE
  8
_0-0_0
  6
CONTINUOUS
 62
    7
 10
85.911996492599997
 20
217.94848629910001
 11
85.772027833300001
 21
217.7176488554
  0
LINE
  8
_0-0_0
  6
CONTINUOUS
 62
    7
 10
85.772027833300001
 20
217.7176488554
 11
85.616189084199988
 21
217.49769505540002
  0
LINE
  8
_0-0_0
  6
CONTINUOUS
 62
    7
 10
85.616189084199988
 20
217.49769505540002
 11
85.447895805599998
 21
217.28752742010002
  0
LINE
  8
_0-0_0
  6
CONTINUOUS
 62
    7
 10
85.447895805599998
 20
217.28752742010002
 11
85.268435983799989
 21
217.0875849857
  0
LINE
  8
_0-0_0
  6
CONTINUOUS
 62
    7
 10
85.268435983799989
 20
217.0875849857
 11
85.078147497099991
 21
216.89886230320002
  0
LINE
  8
_0-0_0
  6
CONTINUOUS
 62
    7
 10
85.078147497099991
 20
216.89886230320002
 11
84.877561058200001
 21
216.72197477120002
  0
LINE
  8
_0-0_0
  6
CONTINUOUS
 62
    7
 10
84.877561058200001
 20
216.72197477120002
 11
84.6674104855
 21
216.5573040763
  0
LINE
  8
_0-0_0
  6
CONTINUOUS
 62
    7
 10
84.6674104855
 20
216.5573040763
 11
84.448745347599996
 21
216.40502599760001
  0
LINE
  8
_0-0_0
  6
CONTINUOUS
 62
    7
 10
84.448745347599996
 20
216.40502599760001
 11
84.222204001999998
 21
216.26629706810002
  0
LINE
  8
_0-0_0
  6
CONTINUOUS
 62
    7
 10
84.222204001999998
 20
216.26629706810002
 11
83.987227977299995
 21
216.14447350510002
  0
LINE
  8
_0-0_0
  6
CONTINUOUS
 62
    7
 10
83.987227977299995
 20
216.14447350510002
 11
83.7461522989
 21
216.03515627020002
  0
LINE
  8
_0-0_0
  6
CONTINUOUS
 62
    7
 10
83.7461522989
 20
216.03515627020002
 11
83.5020296008
 21
215.93209228950002
  0
ARC
  8
_0-0_0
  6
CONTINUOUS
 62
    7
 10
86.963649414599999
 20
218.13126537510001
 40
0.275522762036124
 50
93.062822234700008
 51
162.40866422249999
  0
ARC
  8
_0-0_0
  6
CONTINUOUS
 62
    7
 10
86.929304081399991
 20
218.10743363110001
 40
0.8318769091136747
 50
89.402163793599996
 51
157.18716450330001
  0
ARC
  8
_0-0_0
  6
CONTINUOUS
 62
    7
 10
-13.891068052700007
 20
195.78001401050003
 40
109.30866345693219
 50
5.5430671261999995
 51
11.4943336692
  0
ARC
  8
_0-0_0
  6
CONTINUOUS
 62
    7
 10
194.3533253029
 20
228.9392217418
 40
102.4043220584807
 50
186.43495679470001
 51
188.33451243700003
  0
ARC
  8
_0-0_0
  6
CONTINUOUS
 62
    7
 10
199.54204891719999
 20
229.48127371680002
 40
107.6153400657235
 50
188.87321390810001
 51
192.4252075572
  0
ARC
  8
_0-0_0
  6
CONTINUOUS
 62
    7
 10
91.900807776999997
 20
219.7898424462
 40
0.6944308507403644
 50
273.76251733719999
 51
306.7756329481
  0
LINE
  8
_0-0_0
  6
CONTINUOUS
 62
    7
 10
91.919468444199993
 20
218.43175536340001
 11
91.924384333099994
 21
218.43149731310001
  0
LINE
  8
_0-0_0
  6
CONTINUOUS
 62
    7
 10
91.962507590199991
 20
218.42949610480002
 11
91.964749467399997
 21
218.42937842170002
  0
LINE
  8
_0-0_0
  6
CONTINUOUS
 62
    7
 10
91.964749467399997
 20
218.42937842170002
 11
92.013533826299991
 21
218.42133983810001
  0
LINE
  8
_0-0_0
  6
CONTINUOUS
 62
    7
 10
92.013533826299991
 20
218.42133983810001
 11
92.06501095889999
 21
218.40681937640002
  0
LINE
  8
_0-0_0
  6
CONTINUOUS
 62
    7
 10
92.06501095889999
 20
218.40681937640002
 11
92.118370248599987
 21
218.38499708950002
  0
LINE
  8
_0-0_0
  6
CONTINUOUS
 62
    7
 10
92.118370248599987
 20
218.38499708950002
 11
92.172801074899994
 21
218.35505337020001
  0
LINE
  8
_0-0_0
  6
CONTINUOUS
 62
    7
 10
92.172801074899994
 20
218.35505337020001
 11
92.227492864399991
 21
218.31616900040001
  0
LINE
  8
_0-0_0
  6
CONTINUOUS
 62
    7
 10
92.227492864399991
 20
218.31616900040001
 11
92.281635140999995
 21
218.26752520210002
  0
LINE
  8
_0-0_0
  6
CONTINUOUS
 62
    7
 10
92.281635140999995
 20
218.26752520210002
 11
92.334417576499987
 21
218.20830368600002
  0
LINE
  8
_0-0_0
  6
CONTINUOUS
 62
    7
 10
93.226052045199992
 20
217.56220583620001
 11
93.20925920229999
 21
217.65989785710002
  0
LINE
  8
_0-0_0
  6
CONTINUOUS
 62
    7
 10
93.20925920229999
 20
217.65989785710002
 11
93.194563207599998
 21
217.7756763582
  0
LINE
  8
_0-0_0
  6
CONTINUOUS
 62
    7
 10
93.194563207599998
 20
217.7756763582
 11
93.182213796399992
 21
217.90585863500002
  0
LINE
  8
_0-0_0
  6
CONTINUOUS
 62
    7
 10
93.182213796399992
 20
217.90585863500002
 11
93.172311634099998
 21
218.04608796550002
  0
LINE
  8
_0-0_0
  6
CONTINUOUS
 62
    7
 10
93.172311634099998
 20
218.04608796550002
 11
93.164880255499995
 21
218.1917361257
  0
LINE
  8
_0-0_0
  6
CONTINUOUS
 62
    7
 10
93.164880255499995
 20
218.1917361257
 11
93.158779648899994
 21
218.38501831650001
  0
LINE
  8
_0-0_0
  6
CONTINUOUS
 62
    7
 10
93.158779648899994
 20
218.38501831650001
 11
93.156513535199991
 21
218.5760728841
  0
LINE
  8
_0-0_0
  6
CONTINUOUS
 62
    7
 10
93.156513535199991
 20
218.5760728841
 11
93.157619152099997
 21
218.75821678470001
  0
LINE
  8
_0-0_0
  6
CONTINUOUS
 62
    7
 10
93.157619152099997
 20
218.75821678470001
 11
93.162257389499999
 21
218.94690517330002
  0
LINE
  8
_0-0_0
  6
CONTINUOUS
 62
    7
 10
93.162257389499999
 20
218.94690517330002
 11
93.169679630399997
 21
219.115156332
  0
LINE
  8
_0-0_0
  6
CONTINUOUS
 62
    7
 10
93.169679630399997
 20
219.115156332
 11
93.179410834699993
 21
219.26617194600001
  0
LINE
  8
_0-0_0
  6
CONTINUOUS
 62
    7
 10
93.179410834699993
 20
219.26617194600001
 11
93.191384528699999
 21
219.40482084770002
  0
LINE
  8
_0-0_0
  6
CONTINUOUS
 62
    7
 10
93.191384528699999
 20
219.40482084770002
 11
93.205658766499994
 21
219.53234025400002
  0
LINE
  8
_0-0_0
  6
CONTINUOUS
 62
    7
 10
93.205658766499994
 20
219.53234025400002
 11
93.222318579899991
 21
219.6490311803
  0
LINE
  8
_0-0_0
  6
CONTINUOUS
 62
    7
 10
92.3344168964
 20
218.20830463750002
 11
92.391444030599999
 21
218.1275177782
  0
LINE
  8
_0-0_0
  6
CONTINUOUS
 62
    7
 10
92.391444030599999
 20
218.1275177782
 11
92.444533127099987
 21
218.03090132280002
  0
LINE
  8
_0-0_0
  6
CONTINUOUS
 62
    7
 10
92.444533127099987
 20
218.03090132280002
 11
92.4925060196
 21
217.91724994610001
  0
LINE
  8
_0-0_0
  6
CONTINUOUS
 62
    7
 10
92.4925060196
 20
217.91724994610001
 11
92.534176915799989
 21
217.78536891710002
  0
LINE
  8
_0-0_0
  6
CONTINUOUS
 62
    7
 10
92.534176915799989
 20
217.78536891710002
 11
92.568371190400001
 21
217.6340769112
  0
LINE
  8
_0-0_0
  6
CONTINUOUS
 62
    7
 10
92.568371190400001
 20
217.6340769112
 11
92.593920323999996
 21
217.46220645160003
  0
LINE
  8
_0-0_0
  6
CONTINUOUS
 62
    7
 10
92.596261190099995
 20
219.7819110952
 11
92.556652508799999
 21
219.64911905610001
  0
LINE
  8
_0-0_0
  6
CONTINUOUS
 62
    7
 10
92.556652508799999
 20
219.64911905610001
 11
92.51359063999999
 21
219.53471949020002
  0
LINE
  8
_0-0_0
  6
CONTINUOUS
 62
    7
 10
92.51359063999999
 20
219.53471949020002
 11
92.467560776199988
 21
219.43734759490002
  0
LINE
  8
_0-0_0
  6
CONTINUOUS
 62
    7
 10
92.467560776199988
 20
219.43734759490002
 11
92.419051368699996
 21
219.35562732350002
  0
LINE
  8
_0-0_0
  6
CONTINUOUS
 62
    7
 10
92.419051368699996
 20
219.35562732350002
 11
92.368546833499991
 21
219.28817285380001
  0
LINE
  8
_0-0_0
  6
CONTINUOUS
 62
    7
 10
92.368546833499991
 20
219.28817285380001
 11
92.316528004399999
 21
219.23358935500002
  0
LINE
  8
_0-0_0
  6
CONTINUOUS
 62
    7
 10
93.222145221899993
 20
219.64792775720002
 11
93.746037369799993
 21
222.91115618080002
  0
LINE
  8
_0-0_0
  6
CONTINUOUS
 62
    7
 10
93.442792858199994
 20
222.97552025340002
 11
92.596269089399996
 21
219.78191068450002
  0
ARC
  8
_0-0_0
  6
CONTINUOUS
 62
    7
 10
94.867256028699998
 20
206.33468857280002
 40
0.0399999995972872
 50
269.9999869751
 51
5.7184218306000014
  0
ARC
  8
_0-0_0
  6
CONTINUOUS
 62
    7
 10
94.485598613199997
 20
206.33468856070002
 40
0.0399999874137152
 50
192.471456932
 51
270.00020955010001
  0
ARC
  8
_0-0_0
  6
CONTINUOUS
 62
    7
 10
93.595436737999989
 20
222.94815149020002
 40
0.1550781250000418
 50
346.19784616369998
 51
0
  0
ARC
  8
_0-0_0
  6
CONTINUOUS
 62
    7
 10
93.595436737999989
 20
222.94815149020002
 40
0.1550781250000312
 50
0
 51
169.8356130951
  0
ARC
  8
_0-0_0
  6
CONTINUOUS
 62
    7
 10
83.98192689439999
 20
214.744204279
 40
0.4416031641515679
 50
131.1777654608
 51
176.9633924927
  0
LINE
  8
_0-0_0
  6
CONTINUOUS
 62
    7
 10
82.883710709900001
 20
215.40483810400002
 11
82.867881112500001
 21
215.37809145690002
  0
LINE
  8
_0-0_0
  6
CONTINUOUS
 62
    7
 10
82.867881112500001
 20
215.37809145690002
 11
82.845082843399993
 21
215.33621579540002
  0
LINE
  8
_0-0_0
  6
CONTINUOUS
 62
    7
 10
82.845082843399993
 20
215.33621579540002
 11
82.821631764799989
 21
215.28869612740002
  0
LINE
  8
_0-0_0
  6
CONTINUOUS
 62
    7
 10
82.821631764799989
 20
215.28869612740002
 11
82.796199933099999
 21
215.23066675850001
  0
LINE
  8
_0-0_0
  6
CONTINUOUS
 62
    7
 10
82.796199933099999
 20
215.23066675850001
 11
82.775795876999993
 21
215.177613417
  0
LINE
  8
_0-0_0
  6
CONTINUOUS
 62
    7
 10
82.775795876999993
 20
215.177613417
 11
82.759825952299991
 21
215.13051446050002
  0
LINE
  8
_0-0_0
  6
CONTINUOUS
 62
    7
 10
82.759825952299991
 20
215.13051446050002
 11
82.746372073199993
 21
215.0851023676
  0
LINE
  8
_0-0_0
  6
CONTINUOUS
 62
    7
 10
82.746372073199993
 20
215.0851023676
 11
82.731027552299992
 21
215.01886962980001
  0
LINE
  8
_0-0_0
  6
CONTINUOUS
 62
    7
 10
82.731027552299992
 20
215.01886962980001
 11
82.716270981899996
 21
214.9278143505
  0
LINE
  8
_0-0_0
  6
CONTINUOUS
 62
    7
 10
82.716270981899996
 20
214.9278143505
 11
82.702084180999989
 21
214.81148658020001
  0
ARC
  8
_0-0_0
  6
CONTINUOUS
 62
    7
 10
274.8166157247
 20
204.66898842160001
 40
192.38130546869681
 50
176.9779318036
 51
179.50380133110002
  0
ARC
  8
_0-0_0
  6
CONTINUOUS
 62
    7
 10
-109.6105541691
 20
224.77946563430001
 40
193.40949044573861
 50
354.52638219689999
 51
356.67730034279998
  0
LINE
  8
_0-0_0
  6
CONTINUOUS
 62
    7
 10
83.539719001399988
 20
214.75903002380002
 11
83.540173516199999
 21
214.76764031980002
  0
ARC
  8
_0-0_0
  6
CONTINUOUS
 62
    7
 10
82.8772726662
 20
206.33468856430002
 40
0.0399999910529302
 50
269.99980931469997
 51
353.67700501949997
  0
ARC
  8
_0-0_0
  6
CONTINUOUS
 62
    7
 10
82.482019259200001
 20
206.33468857330001
 40
0.0400003132774824
 50
179.41238334680003
 51
270.00000953450001
  0
LINE
  8
_0-0_0
  6
CONTINUOUS
 62
    7
 10
93.340684581999994
 20
222.59030488190001
 11
93.311280232599998
 21
222.52046505050001
  0
LINE
  8
_0-0_0
  6
CONTINUOUS
 62
    7
 10
93.311280232599998
 20
222.52046505050001
 11
93.265591960199998
 21
222.4049330105
  0
LINE
  8
_0-0_0
  6
CONTINUOUS
 62
    7
 10
93.265591960199998
 20
222.4049330105
 11
93.221618186599997
 21
222.29573188970002
  0
LINE
  8
_0-0_0
  6
CONTINUOUS
 62
    7
 10
93.221618186599997
 20
222.29573188970002
 11
93.179375211999997
 21
222.20088117360001
  0
LINE
  8
_0-0_0
  6
CONTINUOUS
 62
    7
 10
93.179375211999997
 20
222.20088117360001
 11
93.138859439899989
 21
222.11866463820002
  0
LINE
  8
_0-0_0
  6
CONTINUOUS
 62
    7
 10
93.138859439899989
 20
222.11866463820002
 11
93.089680824699997
 21
222.02649205510002
  0
LINE
  8
_0-0_0
  6
CONTINUOUS
 62
    7
 10
93.089680824699997
 20
222.02649205510002
 11
93.032871431399997
 21
221.92645321750001
  0
LINE
  8
_0-0_0
  6
CONTINUOUS
 62
    7
 10
93.032871431399997
 20
221.92645321750001
 11
92.969504056899993
 21
221.81884119900002
  0
LINE
  8
_0-0_0
  6
CONTINUOUS
 62
    7
 10
92.969504056899993
 20
221.81884119900002
 11
92.906751296399989
 21
221.71305073650001
  0
LINE
  8
_0-0_0
  6
CONTINUOUS
 62
    7
 10
92.906751296399989
 20
221.71305073650001
 11
92.85986185569999
 21
221.63308909280002
  0
LINE
  8
_0-0_0
  6
CONTINUOUS
 62
    7
 10
92.85986185569999
 20
221.63308909280002
 11
92.811348882499999
 21
221.54831648610002
  0
LINE
  8
_0-0_0
  6
CONTINUOUS
 62
    7
 10
92.811348882499999
 20
221.54831648610002
 11
92.757062111699994
 21
221.4493289376
  0
LINE
  8
_0-0_0
  6
CONTINUOUS
 62
    7
 10
92.757062111699994
 20
221.4493289376
 11
92.698721995899987
 21
221.33530415710001
  0
LINE
  8
_0-0_0
  6
CONTINUOUS
 62
    7
 10
92.698721995899987
 20
221.33530415710001
 11
92.644324991799991
 21
221.2176842092
  0
LINE
  8
_0-0_0
  6
CONTINUOUS
 62
    7
 10
92.644324991799991
 20
221.2176842092
 11
92.591410481200001
 21
221.08568825990002
  0
LINE
  8
_0-0_0
  6
CONTINUOUS
 62
    7
 10
92.591410481200001
 20
221.08568825990002
 11
92.5435611045
 21
220.93795503980002
  0
LINE
  8
_0-0_0
  6
CONTINUOUS
 62
    7
 10
92.5435611045
 20
220.93795503980002
 11
92.506919776099991
 21
220.77788218290002
  0
LINE
  8
_0-0_0
  6
CONTINUOUS
 62
    7
 10
92.506919776099991
 20
220.77788218290002
 11
92.484559270699989
 21
220.6205743623
  0
LINE
  8
_0-0_0
  6
CONTINUOUS
 62
    7
 10
92.484559270699989
 20
220.6205743623
 11
92.471670385899998
 21
220.43062580720002
  0
LINE
  8
_0-0_0
  6
CONTINUOUS
 62
    7
 10
92.471670385899998
 20
220.43062580720002
 11
92.470357400899999
 21
220.24973230330002
  0
LINE
  8
_0-0_0
  6
CONTINUOUS
 62
    7
 10
92.470357400899999
 20
220.24973230330002
 11
92.476244620700001
 21
220.07920775410003
  0
LINE
  8
_0-0_0
  6
CONTINUOUS
 62
    7
 10
92.476244620700001
 20
220.07920775410003
 11
92.485965597199993
 21
219.92001258190001
  0
LINE
  8
_0-0_0
  6
CONTINUOUS
 62
    7
 10
92.485965597199993
 20
219.92001258190001
 11
92.493287978699996
 21
219.82052285880002
  0
LINE
  8
_0-0_0
  6
CONTINUOUS
 62
    7
 10
92.493287978699996
 20
219.82052285880002
 11
92.500239160699991
 21
219.73095471160002
  0
LINE
  8
_0-0_0
  6
CONTINUOUS
 62
    7
 10
92.500239160699991
 20
219.73095471160002
 11
92.506003300199993
 21
219.65636413160001
  0
LINE
  8
_0-0_0
  6
CONTINUOUS
 62
    7
 10
92.506003300199993
 20
219.65636413160001
 11
92.509432365599991
 21
219.6101988316
  0
LINE
  8
_0-0_0
  6
CONTINUOUS
 62
    7
 10
92.509432365599991
 20
219.6101988316
 11
92.512093934500001
 21
219.57235272070002
  0
LINE
  8
_0-0_0
  6
CONTINUOUS
 62
    7
 10
92.512093934500001
 20
219.57235272070002
 11
92.514038975099993
 21
219.5427633516
  0
LINE
  8
_0-0_0
  6
CONTINUOUS
 62
    7
 10
92.514038975099993
 20
219.5427633516
 11
92.514396323999989
 21
219.53685989660002
  0
ARC
  8
_0-0_0
  6
CONTINUOUS
 62
    7
 10
97.441571562799993
 20
232.512384908
 40
10.37050996851732
 50
249.0446149647
 51
252.52819244360001
  0
LINE
  8
_0-0_0
  6
CONTINUOUS
 62
    7
 10
93.211952687699991
 20
219.5764249911
 11
93.404754010199994
 21
220.54692091470002
  0
LINE
  8
_0-0_0
  6
CONTINUOUS
 62
    7
 10
93.404754010199994
 20
220.54692091470002
 11
93.807657810199998
 21
222.57501006960001
  0
ARC
  8
_0-0_0
  6
CONTINUOUS
 62
    7
 10
93.595431008899993
 20
222.64310743190001
 40
0.2225927477123836
 50
342.1989047637
 51
52.379165701700011
  0
LINE
  8
_0-0_0
  6
CONTINUOUS
 62
    7
 10
91.85996789219999
 20
214.9028306296
 11
91.695552899299997
 21
214.18899388360001
  0
LINE
  8
_0-0_0
  6
CONTINUOUS
 62
    7
 10
90.982895374799995
 20
214.6996334634
 11
87.460409748699988
 21
214.96183357520002
  0
LINE
  8
_0-0_0
  6
CONTINUOUS
 62
    7
 10
87.460409748699988
 20
214.96183357520002
 11
83.955990249999999
 21
215.22313335610002
  0
LINE
  8
_0-0_0
  6
CONTINUOUS
 62
    7
 10
82.571394088599988
 20
214.7932167324
 11
82.573423880499988
 21
214.75995168530002
  0
LINE
  8
_0-0_0
  6
CONTINUOUS
 62
    7
 10
82.573423880499988
 20
214.75995168530002
 11
82.582514454699989
 21
214.72824524900003
  0
LINE
  8
_0-0_0
  6
CONTINUOUS
 62
    7
 10
82.582514454699989
 20
214.72824524900003
 11
82.616070865200001
 21
214.67327368560001
  0
LINE
  8
_0-0_0
  6
CONTINUOUS
 62
    7
 10
82.616070865200001
 20
214.67327368560001
 11
82.658498869999988
 21
214.63254807870001
  0
LINE
  8
_0-0_0
  6
CONTINUOUS
 62
    7
 10
82.658498869999988
 20
214.63254807870001
 11
82.692194084499988
 21
214.60949566080001
  0
ARC
  8
_0-0_0
  6
CONTINUOUS
 62
    7
 10
88.662065227199989
 20
207.54661668720001
 40
9.6199099487291342
 50
127.8026093064
 51
128.67083894370001
  0
ARC
  8
_0-0_0
  6
CONTINUOUS
 62
    7
 10
82.758334020199996
 20
214.91229631390001
 40
0.1803800545121443
 50
126.47262883740001
 51
174.5439191296
  0
LINE
  8
_0-0_0
  6
CONTINUOUS
 62
    7
 10
82.578840601699994
 20
214.9307289564
 11
82.571470671699998
 21
214.79463096710001
  0
ARC
  8
_0-0_0
  6
CONTINUOUS
 62
    7
 10
91.171794062299995
 20
214.3321713464
 40
0.1579471270160441
 50
313.72716617139997
 51
352.29256900550001
  0
LINE
  8
_0-0_0
  6
CONTINUOUS
 62
    7
 10
91.336544789199991
 20
214.4411841907
 11
91.338024187499997
 21
214.45376506540001
  0
LINE
  8
_0-0_0
  6
CONTINUOUS
 62
    7
 10
91.338024187499997
 20
214.45376506540001
 11
91.331252420399991
 21
214.4903199817
  0
LINE
  8
_0-0_0
  6
CONTINUOUS
 62
    7
 10
91.331252420399991
 20
214.4903199817
 11
91.317912902099991
 21
214.52134350510002
  0
LINE
  8
_0-0_0
  6
CONTINUOUS
 62
    7
 10
91.317912902099991
 20
214.52134350510002
 11
91.301895998399999
 21
214.54684157670002
  0
LINE
  8
_0-0_0
  6
CONTINUOUS
 62
    7
 10
91.301895998399999
 20
214.54684157670002
 11
91.268223596399991
 21
214.58545494310002
  0
LINE
  8
_0-0_0
  6
CONTINUOUS
 62
    7
 10
91.268223596399991
 20
214.58545494310002
 11
91.231604276100001
 21
214.6154842784
  0
LINE
  8
_0-0_0
  6
CONTINUOUS
 62
    7
 10
91.231604276100001
 20
214.6154842784
 11
91.1937328554
 21
214.6392382695
  0
LINE
  8
_0-0_0
  6
CONTINUOUS
 62
    7
 10
91.1937328554
 20
214.6392382695
 11
91.141229748899988
 21
214.6640060718
  0
LINE
  8
_0-0_0
  6
CONTINUOUS
 62
    7
 10
91.141229748899988
 20
214.6640060718
 11
91.091711832199991
 21
214.6811681865
  0
LINE
  8
_0-0_0
  6
CONTINUOUS
 62
    7
 10
91.091711832199991
 20
214.6811681865
 11
91.029767039500001
 21
214.69602375950001
  0
LINE
  8
_0-0_0
  6
CONTINUOUS
 62
    7
 10
91.029767039500001
 20
214.69602375950001
 11
90.955382549199996
 21
214.70555898060002
  0
LINE
  8
_0-0_0
  6
CONTINUOUS
 62
    7
 10
90.211441021999988
 20
214.75705752100001
 11
90.10916968059999
 21
214.76736959210001
  0
LINE
  8
_0-0_0
  6
CONTINUOUS
 62
    7
 10
90.10916968059999
 20
214.76736959210001
 11
89.978165908699992
 21
214.781311523
  0
LINE
  8
_0-0_0
  6
CONTINUOUS
 62
    7
 10
89.978165908699992
 20
214.781311523
 11
89.827455565099996
 21
214.7982510603
  0
LINE
  8
_0-0_0
  6
CONTINUOUS
 62
    7
 10
89.827455565099996
 20
214.7982510603
 11
89.6570555383
 21
214.81843300170001
  0
LINE
  8
_0-0_0
  6
CONTINUOUS
 62
    7
 10
89.6570555383
 20
214.81843300170001
 11
89.46697778539999
 21
214.8420306623
  0
LINE
  8
_0-0_0
  6
CONTINUOUS
 62
    7
 10
89.46697778539999
 20
214.8420306623
 11
89.257225913100001
 21
214.86909632370001
  0
LINE
  8
_0-0_0
  6
CONTINUOUS
 62
    7
 10
89.257225913100001
 20
214.86909632370001
 11
89.027791176400001
 21
214.89950322690001
  0
LINE
  8
_0-0_0
  6
CONTINUOUS
 62
    7
 10
89.027791176400001
 20
214.89950322690001
 11
88.778648034899987
 21
214.93288116560001
  0
LINE
  8
_0-0_0
  6
CONTINUOUS
 62
    7
 10
88.778648034899987
 20
214.93288116560001
 11
88.509749530199997
 21
214.968549483
  0
LINE
  8
_0-0_0
  6
CONTINUOUS
 62
    7
 10
88.509749530199997
 20
214.968549483
 11
88.240890097799991
 21
215.00298204720002
  0
LINE
  8
_0-0_0
  6
CONTINUOUS
 62
    7
 10
88.240890097799991
 20
215.00298204720002
 11
87.954676268399993
 21
215.03730395620002
  0
LINE
  8
_0-0_0
  6
CONTINUOUS
 62
    7
 10
87.954676268399993
 20
215.03730395620002
 11
87.651001632099991
 21
215.06997280900001
  0
LINE
  8
_0-0_0
  6
CONTINUOUS
 62
    7
 10
87.651001632099991
 20
215.06997280900001
 11
87.329728096299988
 21
215.09898696760001
  0
LINE
  8
_0-0_0
  6
CONTINUOUS
 62
    7
 10
87.329728096299988
 20
215.09898696760001
 11
86.990715279499994
 21
215.1223116164
  0
LINE
  8
_0-0_0
  6
CONTINUOUS
 62
    7
 10
86.990715279499994
 20
215.1223116164
 11
86.6338612391
 21
215.13846910430001
  0
LINE
  8
_0-0_0
  6
CONTINUOUS
 62
    7
 10
86.6338612391
 20
215.13846910430001
 11
86.190321179499989
 21
215.1474771618
  0
LINE
  8
_0-0_0
  6
CONTINUOUS
 62
    7
 10
86.190321179499989
 20
215.1474771618
 11
85.721991792699995
 21
215.14642369060002
  0
LINE
  8
_0-0_0
  6
CONTINUOUS
 62
    7
 10
85.721991792699995
 20
215.14642369060002
 11
85.229074245899994
 21
215.13822459330001
  0
LINE
  8
_0-0_0
  6
CONTINUOUS
 62
    7
 10
85.229074245899994
 20
215.13822459330001
 11
85.123506642099997
 21
215.13607991470002
  0
LINE
  8
_0-0_0
  6
CONTINUOUS
 62
    7
 10
91.926660105899998
 20
219.13353130280001
 11
90.168978216999989
 21
219.07465209650002
  0
LINE
  8
_0-0_0
  6
CONTINUOUS
 62
    7
 10
90.168978216999989
 20
219.07465209650002
 11
89.407632871299995
 21
219.05043098610003
  0
LINE
  8
_0-0_0
  6
CONTINUOUS
 62
    7
 10
89.407632871299995
 20
219.05043098610003
 11
86.955485785099995
 21
218.97907248530001
  0
ARC
  8
_0-0_0
  6
CONTINUOUS
 62
    7
 10
86.955488356999993
 20
218.95758124940002
 40
0.020986771428231
 50
90.194784624300013
 51
166.1094118634
  0
ARC
  8
_0-0_0
  6
CONTINUOUS
 62
    7
 10
91.927941858200001
 20
219.111499603
 40
0.021436856973637
 50
9.6557861766999995
 51
93.846005480100004
  0
LINE
  8
_0-0_0
  6
CONTINUOUS
 62
    7
 10
86.964519079199988
 20
218.38211141090002
 11
86.990191006699987
 21
218.38232426940002
  0
LINE
  8
_0-0_0
  6
CONTINUOUS
 62
    7
 10
86.9901940556
 20
218.38211704300002
 11
87.388486176599997
 21
218.3854524555
  0
LINE
  8
_0-0_0
  6
CONTINUOUS
 62
    7
 10
87.388486176599997
 20
218.3854524555
 11
89.118601831799992
 21
218.39546043040002
  0
LINE
  8
_0-0_0
  6
CONTINUOUS
 62
    7
 10
89.118601831799992
 20
218.39546043040002
 11
90.936613846099988
 21
218.4007321766
  0
LINE
  8
_0-0_0
  6
CONTINUOUS
 62
    7
 10
90.936613846099988
 20
218.4007321766
 11
91.923705458599997
 21
218.40150352890001
  0
LINE
  8
_0-0_0
  6
CONTINUOUS
 62
    7
 10
86.955882793299992
 20
218.3819598458
 11
86.981539379799997
 21
218.3821728291
  0
LINE
  8
_0-0_0
  6
CONTINUOUS
 62
    7
 10
91.923704215899988
 20
218.40180752950002
 11
91.937688279299991
 21
218.40181510510001
  0
LINE
  8
_0-0_0
  6
CONTINUOUS
 62
    7
 10
91.937688279299991
 20
218.40181510510001
 11
91.948196918099995
 21
218.4018204971
  0
LINE
  8
_0-0_0
  6
CONTINUOUS
 62
    7
 10
91.922430243400001
 20
218.40166136400001
 11
91.929104663999993
 21
218.40166492590001
  0
LINE
  8
_0-0_0
  6
CONTINUOUS
 62
    7
 10
91.929104663999993
 20
218.40166492590001
 11
91.939581968499994
 21
218.4016697861
  0
LINE
  8
_0-0_0
  6
CONTINUOUS
 62
    7
 10
86.986617955999989
 20
218.3565185045
 11
89.456696986200001
 21
218.36688821020002
  0
LINE
  8
_0-0_0
  6
CONTINUOUS
 62
    7
 10
89.456696986200001
 20
218.36688821020002
 11
91.920429372499996
 21
218.3772264312
  0
LINE
  8
_0-0_0
  6
CONTINUOUS
 62
    7
 10
93.271775923099995
 20
213.12754105430002
 11
93.274909146900001
 21
213.05669674540002
  0
LINE
  8
_0-0_0
  6
CONTINUOUS
 62
    7
 10
93.274909146900001
 20
213.05669674540002
 11
93.2645074502
 21
212.99220385680002
  0
LINE
  8
_0-0_0
  6
CONTINUOUS
 62
    7
 10
93.2645074502
 20
212.99220385680002
 11
93.246324513299996
 21
212.93751411860001
  0
LINE
  8
_0-0_0
  6
CONTINUOUS
 62
    7
 10
93.246324513299996
 20
212.93751411860001
 11
93.235752653799992
 21
212.91380257280002
  0
LINE
  8
_0-0_0
  6
CONTINUOUS
 62
    7
 10
93.235752653799992
 20
212.91380257280002
 11
93.226435391199999
 21
212.8959536127
  0
LINE
  8
_0-0_0
  6
CONTINUOUS
 62
    7
 10
93.226435391199999
 20
212.8959536127
 11
93.218930662799991
 21
212.88397228370002
  0
LINE
  8
_0-0_0
  6
CONTINUOUS
 62
    7
 10
93.218930662799991
 20
212.88397228370002
 11
93.214711127599998
 21
212.8798377503
  0
LINE
  8
_0-0_0
  6
CONTINUOUS
 62
    7
 10
83.41816350789999
 20
213.81771946930002
 11
83.417956333500001
 21
213.7799650872
  0
LINE
  8
_0-0_0
  6
CONTINUOUS
 62
    7
 10
83.417956333500001
 20
213.7799650872
 11
83.421332012499988
 21
213.74319532550001
  0
LINE
  8
_0-0_0
  6
CONTINUOUS
 62
    7
 10
83.421332012499988
 20
213.74319532550001
 11
83.435581263799989
 21
213.67674866590002
  0
LINE
  8
_0-0_0
  6
CONTINUOUS
 62
    7
 10
83.435581263799989
 20
213.67674866590002
 11
83.455551279099993
 21
213.6164719377
  0
LINE
  8
_0-0_0
  6
CONTINUOUS
 62
    7
 10
83.455551279099993
 20
213.6164719377
 11
83.465002473999988
 21
213.59141356060002
  0
LINE
  8
_0-0_0
  6
CONTINUOUS
 62
    7
 10
83.465002473999988
 20
213.59141356060002
 11
83.471609777499992
 21
213.57345132150002
  0
LINE
  8
_0-0_0
  6
CONTINUOUS
 62
    7
 10
83.471609777499992
 20
213.57345132150002
 11
83.47302206469999
 21
213.56545307600001
  0
ARC
  8
_0-0_0
  6
CONTINUOUS
 62
    7
 10
83.342826585499992
 20
214.9372891429
 40
0.2655268822462191
 50
303.4109260349
 51
317.93424776479998
  0
ARC
  8
_0-0_0
  6
CONTINUOUS
 62
    7
 10
83.539492288299996
 20
214.6611517936
 40
0.0742633261743551
 50
132.79834629450002
 51
178.40376994960002
  0
LINE
  8
_0-0_0
  6
CONTINUOUS
 62
    7
 10
83.465257779999988
 20
214.6632204629
 11
83.420297706699998
 21
213.8543364976
  0
LINE
  8
_0-0_0
  6
CONTINUOUS
 62
    7
 10
83.420297706699998
 20
213.8543364976
 11
83.41816350789999
 21
213.81771946930002
  0
LINE
  8
_0-0_0
  6
CONTINUOUS
 62
    7
 10
93.144210478999995
 20
213.985275771
 11
93.271775923099995
 21
213.12754105430002
  0
ARC
  8
_0-0_0
  6
CONTINUOUS
 62
    7
 10
93.057664016399997
 20
213.97235127710002
 40
0.0875061867995271
 50
8.4935491647999992
 51
52.4047920852
  0
ARC
  8
_0-0_0
  6
CONTINUOUS
 62
    7
 10
92.661634578399998
 20
213.4583428574
 40
0.7363851942571769
 50
52.3888773718
 51
59.8345524868
  0
ARC
  8
_0-0_0
  6
CONTINUOUS
 62
    7
 10
90.582223709099992
 20
197.96697163090002
 40
15.06044811414935
 50
85.778628834800003
 51
86.722103813000004
  0
LINE
  8
_0-0_0
  6
CONTINUOUS
 62
    7
 10
83.473304173599999
 20
213.5610284288
 11
91.443363235499987
 21
213.00278009320002
  0
LINE
  8
_0-0_0
  6
CONTINUOUS
 62
    7
 10
93.214711127599998
 20
212.8798377503
 11
93.21456857199999
 21
212.8798343306
  0
LINE
  8
_0-0_0
  6
CONTINUOUS
 62
    7
 10
93.21456857199999
 20
212.8798343306
 11
91.716263633099999
 21
212.98478038330001
  0
LINE
  8
_0-0_0
  6
CONTINUOUS
 62
    7
 10
91.716263633099999
 20
212.98478038330001
 11
91.690826118999993
 21
212.9865621079
  0
LINE
  8
_0-0_0
  6
CONTINUOUS
 62
    7
 10
83.572411550499993
 20
214.91232142110002
 11
83.56934530129999
 21
214.91338108890002
  0
LINE
  8
_0-0_0
  6
CONTINUOUS
 62
    7
 10
83.574420240099997
 20
214.9163117832
 11
83.572411550499993
 21
214.91232142110002
  0
LINE
  8
_0-0_0
  6
CONTINUOUS
 62
    7
 10
83.689515014099996
 20
215.07623028820001
 11
83.689481979499988
 21
215.07511936980001
  0
ARC
  8
_0-0_0
  6
CONTINUOUS
 62
    7
 10
83.982334476799991
 20
214.7409019243
 40
0.4451835007845227
 50
131.1285025
 51
156.9971020074
  0
LINE
  8
_0-0_0
  6
CONTINUOUS
 62
    7
 10
83.569539314099998
 20
214.9181585126
 11
83.572549702399996
 21
214.91486970290001
  0
ARC
  8
_0-0_0
  6
CONTINUOUS
 62
    7
 10
83.995953479999997
 20
214.7489131051
 40
0.4587734177391694
 50
133.09838953240001
 51
158.3516833928
  0
LINE
  8
_0-0_0
  6
CONTINUOUS
 62
    7
 10
83.6762707436
 20
215.08948966840001
 11
83.682495051299995
 21
215.083900959
  0
ARC
  8
_0-0_0
  6
CONTINUOUS
 62
    7
 10
83.979890467699988
 20
214.7306702658
 40
0.4700386160553178
 50
130.2366659903
 51
154.72918135020001
  0
LINE
  8
_0-0_0
  6
CONTINUOUS
 62
    7
 10
83.544914911799992
 20
214.9395615823
 11
83.554834504799999
 21
214.93132850490002
  0
LINE
  8
_0-0_0
  6
CONTINUOUS
 62
    7
 10
83.590759305999995
 20
215.03004218240002
 11
83.544914911799992
 21
214.9395615823
  0
ARC
  8
_0-0_0
  6
CONTINUOUS
 62
    7
 10
78.03249126259999
 20
207.89683765330003
 40
9.0430609031066354
 50
52.073903250299999
 51
56.750630743400002
  0
LINE
  8
_0-0_0
  6
CONTINUOUS
 62
    7
 10
82.931069976499998
 20
215.37883263680001
 11
82.9906570765
 21
215.45947887580002
  0
LINE
  8
_0-0_0
  6
CONTINUOUS
 62
    7
 10
82.918333314999998
 20
215.38681250880001
 11
82.931069976499998
 21
215.37883263680001
  0
LINE
  8
_0-0_0
  6
CONTINUOUS
 62
    7
 10
83.0271678724
 20
215.5539915098
 11
82.943842789199991
 21
215.43173574570002
  0
LINE
  8
_0-0_0
  6
CONTINUOUS
 62
    7
 10
82.943842789199991
 20
215.43173574570002
 11
82.918333314999998
 21
215.38681250880001
  0
LINE
  8
_0-0_0
  6
CONTINUOUS
 62
    7
 10
83.017968967399995
 20
215.55943974230001
 11
83.0271678724
 21
215.5539915098
  0
LINE
  8
_0-0_0
  6
CONTINUOUS
 62
    7
 10
82.896844322999996
 20
215.3995430141
 11
82.982978983999999
 21
215.51851287880001
  0
LINE
  8
_0-0_0
  6
CONTINUOUS
 62
    7
 10
82.982978983999999
 20
215.51851287880001
 11
83.017968967399995
 21
215.55943974230001
  0
LINE
  8
_0-0_0
  6
CONTINUOUS
 62
    7
 10
82.890831755400001
 20
215.4027110847
 11
82.895238815100001
 21
215.4004206571
  0
LINE
  8
_0-0_0
  6
CONTINUOUS
 62
    7
 10
82.895238815100001
 20
215.4004206571
 11
82.896844322999996
 21
215.3995430141
  0
LINE
  8
_0-0_0
  6
CONTINUOUS
 62
    7
 10
83.003967622799991
 20
215.56681204290001
 11
82.915710737799998
 21
215.44399612310002
  0
LINE
  8
_0-0_0
  6
CONTINUOUS
 62
    7
 10
82.915710737799998
 20
215.44399612310002
 11
82.890831755400001
 21
215.4027110847
  0
LINE
  8
_0-0_0
  6
CONTINUOUS
 62
    7
 10
83.000983098299997
 20
215.56781322810002
 11
83.003967622799991
 21
215.56681204290001
  0
LINE
  8
_0-0_0
  6
CONTINUOUS
 62
    7
 10
82.883795999599997
 20
215.40509876890002
 11
82.971210768799992
 21
215.53139052430001
  0
LINE
  8
_0-0_0
  6
CONTINUOUS
 62
    7
 10
82.971210768799992
 20
215.53139052430001
 11
83.000983098299997
 21
215.56781322810002
  0
LINE
  8
_0-0_0
  6
CONTINUOUS
 62
    7
 10
82.8837745931
 20
215.4047724449
 11
82.883795999599997
 21
215.40509876890002
  0
LINE
  8
_0-0_0
  6
CONTINUOUS
 62
    7
 10
86.163047789199993
 20
218.43010002630001
 11
86.163597635499997
 21
218.4295292994
  0
LINE
  8
_0-0_0
  6
CONTINUOUS
 62
    7
 10
83.554834504799999
 20
214.93132850490002
 11
83.544096845599995
 21
214.93901243720001
  0
LINE
  8
_0-0_0
  6
CONTINUOUS
 62
    7
 10
82.93089699219999
 20
215.37782186730001
 11
82.918333314999998
 21
215.38681250880001
  0
LINE
  8
_0-0_0
  6
CONTINUOUS
 62
    7
 10
83.682495051299995
 20
215.083900959
 11
83.675594070299994
 21
215.08883934170001
  0
LINE
  8
_0-0_0
  6
CONTINUOUS
 62
    7
 10
83.026648105299998
 20
215.55322890000002
 11
83.017968967399995
 21
215.55943974230001
  0
LINE
  8
_0-0_0
  6
CONTINUOUS
 62
    7
 10
83.5528791574
 20
214.93008061900002
 11
83.548277292099996
 21
214.93337374090001
  0
LINE
  8
_0-0_0
  6
CONTINUOUS
 62
    7
 10
82.885379829499996
 20
215.40396537090001
 11
82.883795999599997
 21
215.40509876890002
  0
ARC
  8
_0-0_0
  6
CONTINUOUS
 62
    7
 10
92.547625925999995
 20
218.01158354090001
 40
5.0440055037350744
 50
76.255586267699996
 51
79.777487014399995
  0
LINE
  8
_0-0_0
  6
CONTINUOUS
 62
    7
 10
94.8665198928
 20
206.29468857330002
 11
94.485830047199997
 21
206.29468857330002
  0
LINE
  8
_0-0_0
  6
CONTINUOUS
 62
    7
 10
82.883776353099989
 20
215.40479927430002
 11
82.883795999599997
 21
215.40509876890002
  0
LINE
  8
_0-0_0
  6
CONTINUOUS
 62
    7
 10
82.883795999599997
 20
215.40509876890002
 11
82.971210768799992
 21
215.53139052430001
  0
LINE
  8
_0-0_0
  6
CONTINUOUS
 62
    7
 10
82.971210768799992
 20
215.53139052430001
 11
83.000983098299997
 21
215.56781322810002
  0
LINE
  8
_0-0_0
  6
CONTINUOUS
 62
    7
 10
83.000983098299997
 20
215.56781322810002
 11
83.003967622799991
 21
215.56681204290001
  0
LINE
  8
_0-0_0
  6
CONTINUOUS
 62
    7
 10
83.003967622799991
 20
215.56681204290001
 11
82.915710737799998
 21
215.44399612310002
  0
LINE
  8
_0-0_0
  6
CONTINUOUS
 62
    7
 10
82.915710737799998
 20
215.44399612310002
 11
82.890831755400001
 21
215.4027110847
  0
LINE
  8
_0-0_0
  6
CONTINUOUS
 62
    7
 10
82.890831755400001
 20
215.4027110847
 11
82.895238815100001
 21
215.4004206571
  0
LINE
  8
_0-0_0
  6
CONTINUOUS
 62
    7
 10
82.895238815100001
 20
215.4004206571
 11
82.896844322999996
 21
215.3995430141
  0
LINE
  8
_0-0_0
  6
CONTINUOUS
 62
    7
 10
82.896844322999996
 20
215.3995430141
 11
82.982978983999999
 21
215.51851287880001
  0
LINE
  8
_0-0_0
  6
CONTINUOUS
 62
    7
 10
82.982978983999999
 20
215.51851287880001
 11
83.017968967399995
 21
215.55943974230001
  0
LINE
  8
_0-0_0
  6
CONTINUOUS
 62
    7
 10
83.017968967399995
 20
215.55943974230001
 11
83.0271678724
 21
215.5539915098
  0
LINE
  8
_0-0_0
  6
CONTINUOUS
 62
    7
 10
83.0271678724
 20
215.5539915098
 11
82.943842789199991
 21
215.43173574570002
  0
LINE
  8
_0-0_0
  6
CONTINUOUS
 62
    7
 10
82.943842789199991
 20
215.43173574570002
 11
82.918333314999998
 21
215.38681250880001
  0
LINE
  8
_0-0_0
  6
CONTINUOUS
 62
    7
 10
82.918333314999998
 20
215.38681250880001
 11
82.931069976499998
 21
215.37883263680001
  0
LINE
  8
_0-0_0
  6
CONTINUOUS
 62
    7
 10
82.931069976499998
 20
215.37883263680001
 11
82.9906570765
 21
215.45947887580002
  0
ARC
  8
_0-0_0
  6
CONTINUOUS
 62
    7
 10
78.03249126259999
 20
207.89683765330003
 40
9.0430609031066354
 50
52.073903250299999
 51
56.750630743400002
  0
LINE
  8
_0-0_0
  6
CONTINUOUS
 62
    7
 10
83.590759305999995
 20
215.03004218240002
 11
83.544914911799992
 21
214.9395615823
  0
LINE
  8
_0-0_0
  6
CONTINUOUS
 62
    7
 10
83.544914911799992
 20
214.9395615823
 11
83.554834504799999
 21
214.93132850490002
  0
ARC
  8
_0-0_0
  6
CONTINUOUS
 62
    7
 10
83.979890467699988
 20
214.7306702658
 40
0.4700386160553178
 50
130.2366659903
 51
154.72918135020001
  0
LINE
  8
_0-0_0
  6
CONTINUOUS
 62
    7
 10
83.6762707436
 20
215.08948966840001
 11
83.682495051299995
 21
215.083900959
  0
ARC
  8
_0-0_0
  6
CONTINUOUS
 62
    7
 10
83.995953479999997
 20
214.7489131051
 40
0.4587734177391694
 50
133.09838953240001
 51
158.3516833928
  0
LINE
  8
_0-0_0
  6
CONTINUOUS
 62
    7
 10
83.569539314099998
 20
214.9181585126
 11
83.572549702399996
 21
214.91486970290001
  0
ARC
  8
_0-0_0
  6
CONTINUOUS
 62
    7
 10
83.982334476799991
 20
214.7409019243
 40
0.4451835007845227
 50
131.1285025
 51
156.9971020074
  0
LINE
  8
_0-0_0
  6
CONTINUOUS
 62
    7
 10
83.689515014099996
 20
215.07623028820001
 11
83.689481979499988
 21
215.07511936980001
  0
LINE
  8
_0-0_0
  6
CONTINUOUS
 62
    7
 10
82.874993132599997
 20
206.29468857330002
 11
82.482025765099991
 21
206.29468857330002
  0
ARC
  8
_0-0_0
  6
CONTINUOUS
 62
    7
 10
79.021275420599977
 20
79.250435368200016
 40
134.25354524956259
 50
87.027453260300021
 51
87.19816249740002
  0
LINE
  8
_0-0_0
  6
CONTINUOUS
 62
    7
 10
83.46682661749999
 20
213.45025828160001
 11
85.5838306311
 21
213.34348992800003
  0
LINE
  8
_0-0_0
  6
CONTINUOUS
 62
    7
 10
88.979514813099996
 20
213.17223299760002
 11
89.1387689325
 21
213.1642012225
  0
ARC
  8
_0-0_0
  6
CONTINUOUS
 62
    7
 10
74.694789230999987
 20
-66.094810802099971
 40
279.63214253294319
 50
87.071828480799994
 51
87.153787276900005
  0
LINE
  8
_0-0_0
  6
CONTINUOUS
 62
    7
 10
85.9833228878
 20
213.32334205390001
 11
88.580022556399996
 21
213.19238087170001
  0
ARC
  8
_0-0_0
  6
CONTINUOUS
 62
    7
 10
86.914412161299992
 20
206.15820043080001
 40
7.1182694154411932
 50
85.428797459799995
 51
88.629287024800007
  0
LINE
  8
_0-0_0
  6
CONTINUOUS
 62
    7
 10
91.382135312700001
 20
214.2109466501
 11
91.416642603299991
 21
214.3693164046
  0
LINE
  8
_0-0_0
  6
CONTINUOUS
 62
    7
 10
91.416642603299991
 20
214.3693164046
 11
91.418174460399996
 21
214.37629024980001
  0
ARC
  8
_0-0_0
  6
CONTINUOUS
 62
    7
 10
91.433159636799999
 20
213.2926111518
 40
0.3519276052411323
 50
234.04118283930001
 51
301.25083151669998
  0
LINE
  8
_0-0_0
  6
CONTINUOUS
 62
    7
 10
91.226506480599994
 20
213.00774712750001
 11
91.226775491599994
 21
213.01296864830002
  0
LINE
  8
_0-0_0
  6
CONTINUOUS
 62
    7
 10
91.226775491599994
 20
213.01296864830002
 11
91.227068992499994
 21
213.01793003130001
  0
LINE
  8
_0-0_0
  6
CONTINUOUS
 62
    7
 10
93.75418512249999
 20
222.7981305879
 11
93.764642438899998
 21
222.80384641420002
  0
LINE
  8
_0-0_0
  6
CONTINUOUS
 62
    7
 10
93.764642438899998
 20
222.80384641420002
 11
93.777714767799992
 21
222.80405363470001
  0
LINE
  8
_0-0_0
  6
CONTINUOUS
 62
    7
 10
93.260976052999993
 20
218.66083381070001
 11
93.325310983499989
 21
218.70525536480002
  0
LINE
  8
_0-0_0
  6
CONTINUOUS
 62
    7
 10
93.325310983499989
 20
218.70525536480002
 11
93.388444044599993
 21
218.75088339000001
  0
LINE
  8
_0-0_0
  6
CONTINUOUS
 62
    7
 10
93.388444044599993
 20
218.75088339000001
 11
93.450233405399999
 21
218.79771434260002
  0
LINE
  8
_0-0_0
  6
CONTINUOUS
 62
    7
 10
93.450233405399999
 20
218.79771434260002
 11
93.511649978699992
 21
218.84636371550002
  0
LINE
  8
_0-0_0
  6
CONTINUOUS
 62
    7
 10
93.511649978699992
 20
218.84636371550002
 11
93.571497490399992
 21
218.89588410680003
  0
LINE
  8
_0-0_0
  6
CONTINUOUS
 62
    7
 10
93.571497490399992
 20
218.89588410680003
 11
93.630038206599991
 21
218.9464845912
  0
LINE
  8
_0-0_0
  6
CONTINUOUS
 62
    7
 10
93.630038206599991
 20
218.9464845912
 11
93.687272127199989
 21
218.99816516890002
  0
LINE
  8
_0-0_0
  6
CONTINUOUS
 62
    7
 10
93.687272127199989
 20
218.99816516890002
 11
93.743423762799992
 21
219.05113175060001
  0
LINE
  8
_0-0_0
  6
CONTINUOUS
 62
    7
 10
93.743423762799992
 20
219.05113175060001
 11
93.912763211399991
 21
219.225868209
  0
LINE
  8
_0-0_0
  6
CONTINUOUS
 62
    7
 10
93.912763211399991
 20
219.225868209
 11
94.070375790499995
 21
219.4123342538
  0
LINE
  8
_0-0_0
  6
CONTINUOUS
 62
    7
 10
94.070375790499995
 20
219.4123342538
 11
94.234570348399998
 21
219.63814819150002
  0
LINE
  8
_0-0_0
  6
CONTINUOUS
 62
    7
 10
94.234570348399998
 20
219.63814819150002
 11
94.379683967399998
 21
219.87422648270001
  0
LINE
  8
_0-0_0
  6
CONTINUOUS
 62
    7
 10
94.379683967399998
 20
219.87422648270001
 11
94.505693133400001
 21
220.1198919695
  0
LINE
  8
_0-0_0
  6
CONTINUOUS
 62
    7
 10
94.505693133400001
 20
220.1198919695
 11
94.612653587799997
 21
220.3751166792
  0
LINE
  8
_0-0_0
  6
CONTINUOUS
 62
    7
 10
94.612653587799997
 20
220.3751166792
 11
94.700200467599998
 21
220.63995167420001
  0
LINE
  8
_0-0_0
  6
CONTINUOUS
 62
    7
 10
94.700200467599998
 20
220.63995167420001
 11
94.766724398699992
 21
220.90992761590002
  0
LINE
  8
_0-0_0
  6
CONTINUOUS
 62
    7
 10
94.766724398699992
 20
220.90992761590002
 11
94.8118876013
 21
221.18260013310001
  0
LINE
  8
_0-0_0
  6
CONTINUOUS
 62
    7
 10
94.8118876013
 20
221.18260013310001
 11
94.835925820999989
 21
221.45793946540002
  0
LINE
  8
_0-0_0
  6
CONTINUOUS
 62
    7
 10
94.835925820999989
 20
221.45793946540002
 11
94.840105266799995
 21
221.64320155910002
  0
LINE
  8
_0-0_0
  6
CONTINUOUS
 62
    7
 10
94.840105266799995
 20
221.64320155910002
 11
94.834663983699997
 21
221.8291921684
  0
LINE
  8
_0-0_0
  6
CONTINUOUS
 62
    7
 10
94.834663983699997
 20
221.8291921684
 11
94.819538846099988
 21
222.01518258590002
  0
LINE
  8
_0-0_0
  6
CONTINUOUS
 62
    7
 10
94.819538846099988
 20
222.01518258590002
 11
94.808102812599998
 21
222.10950567150002
  0
LINE
  8
_0-0_0
  6
CONTINUOUS
 62
    7
 10
94.808102812599998
 20
222.10950567150002
 11
94.7944106299
 21
222.20025239330002
  0
LINE
  8
_0-0_0
  6
CONTINUOUS
 62
    7
 10
94.7944106299
 20
222.20025239330002
 11
94.768826227299996
 21
222.28933651700001
  0
LINE
  8
_0-0_0
  6
CONTINUOUS
 62
    7
 10
94.768826227299996
 20
222.28933651700001
 11
94.739036646799988
 21
222.3531554706
  0
LINE
  8
_0-0_0
  6
CONTINUOUS
 62
    7
 10
94.739036646799988
 20
222.3531554706
 11
94.701243257199991
 21
222.41193819680001
  0
LINE
  8
_0-0_0
  6
CONTINUOUS
 62
    7
 10
94.701243257199991
 20
222.41193819680001
 11
94.68395186139999
 21
222.43393990020002
  0
LINE
  8
_0-0_0
  6
CONTINUOUS
 62
    7
 10
94.68395186139999
 20
222.43393990020002
 11
94.665361593
 21
222.455112595
  0
LINE
  8
_0-0_0
  6
CONTINUOUS
 62
    7
 10
94.665361593
 20
222.455112595
 11
94.645283339299993
 21
222.4756489641
  0
LINE
  8
_0-0_0
  6
CONTINUOUS
 62
    7
 10
94.645283339299993
 20
222.4756489641
 11
94.624983800099997
 21
222.49424071520002
  0
LINE
  8
_0-0_0
  6
CONTINUOUS
 62
    7
 10
94.624983800099997
 20
222.49424071520002
 11
94.602864197799988
 21
222.51245522550002
  0
ARC
  8
_0-0_0
  6
CONTINUOUS
 62
    7
 10
93.004375373599999
 20
217.93338379240001
 40
0.7713802159652688
 50
70.570218336099998
 51
78.572907017399999
  0
LINE
  8
_0-0_0
  6
CONTINUOUS
 62
    7
 10
94.60285468299999
 20
222.51244855890002
 11
94.588219251299989
 21
222.51267427230002
  0
LINE
  8
_0-0_0
  6
CONTINUOUS
 62
    7
 10
94.588219251299989
 20
222.51267427230002
 11
94.554794338799994
 21
222.52073070930001
  0
LINE
  8
_0-0_0
  6
CONTINUOUS
 62
    7
 10
94.554794338799994
 20
222.52073070930001
 11
94.502579761899995
 21
222.53661643020001
  0
LINE
  8
_0-0_0
  6
CONTINUOUS
 62
    7
 10
94.502579761899995
 20
222.53661643020001
 11
94.43157528719999
 21
222.5603297687
  0
LINE
  8
_0-0_0
  6
CONTINUOUS
 62
    7
 10
94.43157528719999
 20
222.5603297687
 11
94.341781132400001
 21
222.5918683973
  0
LINE
  8
_0-0_0
  6
CONTINUOUS
 62
    7
 10
94.341781132400001
 20
222.5918683973
 11
94.239436847199997
 21
222.62894287580002
  0
LINE
  8
_0-0_0
  6
CONTINUOUS
 62
    7
 10
94.239436847199997
 20
222.62894287580002
 11
94.12024980599999
 21
222.67302593320002
  0
LINE
  8
_0-0_0
  6
CONTINUOUS
 62
    7
 10
94.12024980599999
 20
222.67302593320002
 11
93.995990264100001
 21
222.71975599450002
  0
LINE
  8
_0-0_0
  6
CONTINUOUS
 62
    7
 10
93.995990264100001
 20
222.71975599450002
 11
93.881599941699989
 21
222.76355255510001
  0
LINE
  8
_0-0_0
  6
CONTINUOUS
 62
    7
 10
93.881599941699989
 20
222.76355255510001
 11
93.777708117499998
 21
222.80406398050002
  0
LINE
  8
_0-0_0
  6
CONTINUOUS
 62
    7
 10
93.732519028900001
 20
222.8269529067
 11
93.737455497399992
 21
222.8256679575
  0
LINE
  8
_0-0_0
  6
CONTINUOUS
 62
    7
 10
93.737455497399992
 20
222.8256679575
 11
93.777248094099988
 21
222.80435822360002
  0
LINE
  8
_0-0_0
  6
CONTINUOUS
 62
    7
 10
93.777248094099988
 20
222.80435822360002
 11
93.777249049299996
 21
222.80435760240002
  0
LINE
  8
_0-0_0
  6
CONTINUOUS
 62
    7
 10
93.777249049299996
 20
222.80435760240002
 11
93.777714767799992
 21
222.80405363470001
  0
ARC
  8
_0-0_0
  6
CONTINUOUS
 62
    7
 10
89.166183929499994
 20
216.4439350481
 40
4.162594902424007
 50
326.12994972540002
 51
335.20704907129993
  0
ARC
  8
_0-0_0
  6
CONTINUOUS
 62
    7
 10
88.059854842199996
 20
217.08620950390002
 40
5.4342528056613402
 50
352.90349471539992
 51
16.843535285399938
  0
ARC
  8
_0-0_0
  6
CONTINUOUS
 62
    7
 10
91.260962610599989
 20
213.0565472932
 40
0.0597384388180843
 50
234.77539091259996
 51
244.05623859169998
  0
ARC
  8
_0-0_0
  6
CONTINUOUS
 62
    7
 10
94.293038621699992
 20
222.1225938931
 40
0.4979796644556425
 50
51.525585815699998
 51
91.322721771700003
  0
ARC
  8
_0-0_0
  6
CONTINUOUS
 62
    7
 10
101.205841943
 20
214.1598791829
 40
9.9948354221876308
 50
155.07489003980001
 51
177.3516067063
  0
ARC
  8
_0-0_0
  6
CONTINUOUS
 62
    7
 10
101.205841943
 20
214.1598791829
 40
9.9948354221876308
 50
155.07489003980001
 51
177.3516067063
  0
ARC
  8
_0-0_0
  6
CONTINUOUS
 62
    7
 10
94.286114296899996
 20
222.10619597660002
 40
0.5151476266031245
 50
52.0573743526
 51
85.391201638599981
  0
LINE
  8
_0-0_0
  6
CONTINUOUS
 62
    7
 10
93.260976052999993
 20
218.66083381070001
 11
93.325310983499989
 21
218.70525536480002
  0
LINE
  8
_0-0_0
  6
CONTINUOUS
 62
    7
 10
93.325310983499989
 20
218.70525536480002
 11
93.388444044599993
 21
218.75088339000001
  0
LINE
  8
_0-0_0
  6
CONTINUOUS
 62
    7
 10
93.388444044599993
 20
218.75088339000001
 11
93.450233405399999
 21
218.79771434260002
  0
LINE
  8
_0-0_0
  6
CONTINUOUS
 62
    7
 10
93.450233405399999
 20
218.79771434260002
 11
93.511649978699992
 21
218.84636371550002
  0
LINE
  8
_0-0_0
  6
CONTINUOUS
 62
    7
 10
93.511649978699992
 20
218.84636371550002
 11
93.571497490399992
 21
218.89588410680003
  0
LINE
  8
_0-0_0
  6
CONTINUOUS
 62
    7
 10
93.571497490399992
 20
218.89588410680003
 11
93.630038206599991
 21
218.9464845912
  0
LINE
  8
_0-0_0
  6
CONTINUOUS
 62
    7
 10
93.630038206599991
 20
218.9464845912
 11
93.687272127199989
 21
218.99816516890002
  0
LINE
  8
_0-0_0
  6
CONTINUOUS
 62
    7
 10
93.687272127199989
 20
218.99816516890002
 11
93.743423762799992
 21
219.05113175060001
  0
LINE
  8
_0-0_0
  6
CONTINUOUS
 62
    7
 10
93.743423762799992
 20
219.05113175060001
 11
93.912763211399991
 21
219.225868209
  0
LINE
  8
_0-0_0
  6
CONTINUOUS
 62
    7
 10
93.912763211399991
 20
219.225868209
 11
94.070375790499995
 21
219.4123342538
  0
LINE
  8
_0-0_0
  6
CONTINUOUS
 62
    7
 10
94.070375790499995
 20
219.4123342538
 11
94.234570348399998
 21
219.63814819150002
  0
LINE
  8
_0-0_0
  6
CONTINUOUS
 62
    7
 10
94.234570348399998
 20
219.63814819150002
 11
94.379683967399998
 21
219.87422648270001
  0
LINE
  8
_0-0_0
  6
CONTINUOUS
 62
    7
 10
94.379683967399998
 20
219.87422648270001
 11
94.505693133400001
 21
220.1198919695
  0
LINE
  8
_0-0_0
  6
CONTINUOUS
 62
    7
 10
94.505693133400001
 20
220.1198919695
 11
94.612653587799997
 21
220.3751166792
  0
LINE
  8
_0-0_0
  6
CONTINUOUS
 62
    7
 10
94.612653587799997
 20
220.3751166792
 11
94.700200467599998
 21
220.63995167420001
  0
LINE
  8
_0-0_0
  6
CONTINUOUS
 62
    7
 10
94.700200467599998
 20
220.63995167420001
 11
94.766724398699992
 21
220.90992761590002
  0
LINE
  8
_0-0_0
  6
CONTINUOUS
 62
    7
 10
94.766724398699992
 20
220.90992761590002
 11
94.8118876013
 21
221.18260013310001
  0
LINE
  8
_0-0_0
  6
CONTINUOUS
 62
    7
 10
94.8118876013
 20
221.18260013310001
 11
94.835925820999989
 21
221.45793946540002
  0
LINE
  8
_0-0_0
  6
CONTINUOUS
 62
    7
 10
94.835925820999989
 20
221.45793946540002
 11
94.840105266799995
 21
221.64320155910002
  0
LINE
  8
_0-0_0
  6
CONTINUOUS
 62
    7
 10
94.840105266799995
 20
221.64320155910002
 11
94.834663983699997
 21
221.8291921684
  0
LINE
  8
_0-0_0
  6
CONTINUOUS
 62
    7
 10
94.834663983699997
 20
221.8291921684
 11
94.819538846099988
 21
222.01518258590002
  0
LINE
  8
_0-0_0
  6
CONTINUOUS
 62
    7
 10
94.819538846099988
 20
222.01518258590002
 11
94.808102812599998
 21
222.10950567150002
  0
LINE
  8
_0-0_0
  6
CONTINUOUS
 62
    7
 10
94.808102812599998
 20
222.10950567150002
 11
94.7944106299
 21
222.20025239330002
  0
LINE
  8
_0-0_0
  6
CONTINUOUS
 62
    7
 10
94.7944106299
 20
222.20025239330002
 11
94.768826227299996
 21
222.28933651700001
  0
LINE
  8
_0-0_0
  6
CONTINUOUS
 62
    7
 10
94.768826227299996
 20
222.28933651700001
 11
94.739036646799988
 21
222.3531554706
  0
LINE
  8
_0-0_0
  6
CONTINUOUS
 62
    7
 10
94.739036646799988
 20
222.3531554706
 11
94.701243257199991
 21
222.41193819680001
  0
LINE
  8
_0-0_0
  6
CONTINUOUS
 62
    7
 10
94.701243257199991
 20
222.41193819680001
 11
94.68395186139999
 21
222.43393990020002
  0
LINE
  8
_0-0_0
  6
CONTINUOUS
 62
    7
 10
94.68395186139999
 20
222.43393990020002
 11
94.665361593
 21
222.455112595
  0
LINE
  8
_0-0_0
  6
CONTINUOUS
 62
    7
 10
94.665361593
 20
222.455112595
 11
94.645283339299993
 21
222.4756489641
  0
LINE
  8
_0-0_0
  6
CONTINUOUS
 62
    7
 10
94.645283339299993
 20
222.4756489641
 11
94.624983800099997
 21
222.49424071520002
  0
LINE
  8
_0-0_0
  6
CONTINUOUS
 62
    7
 10
94.624983800099997
 20
222.49424071520002
 11
94.602864197799988
 21
222.51245522550002
  0
LINE
  8
_0-0_0
  6
CONTINUOUS
 62
    7
 10
92.622401949099995
 20
214.12407442240001
 11
92.669206508599999
 21
214.19438654640001
  0
LINE
  8
_0-0_0
  6
CONTINUOUS
 62
    7
 10
92.669206508599999
 20
214.19438654640001
 11
92.786444664499996
 21
214.39604031040002
  0
ARC
  8
_0-0_0
  6
CONTINUOUS
 62
    7
 10
88.059854842199996
 20
217.08620950390002
 40
5.4342528056613402
 50
352.90349471539992
 51
16.843535285399938
  0
LINE
  8
_0-0_0
  6
CONTINUOUS
 62
    7
 10
91.592405798399994
 20
212.97785470100001
 11
91.545816970499999
 21
212.95816747840001
  0
LINE
  8
_0-0_0
  6
CONTINUOUS
 62
    7
 10
91.545816970499999
 20
212.95816747840001
 11
91.545309621499996
 21
212.95804777970002
  0
LINE
  8
_0-0_0
  6
CONTINUOUS
 62
    7
 10
91.273003696199993
 20
212.9798969883
 11
91.231518175199994
 21
213.00474530480002
  0
LINE
  8
_0-0_0
  6
CONTINUOUS
 62
    7
 10
90.956485921699993
 20
214.70547616460001
 11
90.982601585599994
 21
214.69973706690001
  0
LINE
  8
_0-0_0
  6
CONTINUOUS
 62
    7
 10
90.982601585599994
 20
214.69973706690001
 11
90.982890430399991
 21
214.6995714649
  0
LINE
  8
_0-0_0
  6
CONTINUOUS
 62
    7
 10
91.337852846299995
 20
214.4388582087
 11
91.329464557499989
 21
214.31909939720001
  0
LINE
  8
_0-0_0
  6
CONTINUOUS
 62
    7
 10
91.329464557499989
 20
214.31909939720001
 11
91.32927439449999
 21
214.3163844581
  0
LINE
  8
_0-0_0
  6
CONTINUOUS
 62
    7
 10
86.949127306400001
 20
218.39675764540002
 11
86.952755146999991
 21
218.42971384570001
  0
LINE
  8
_0-0_0
  6
CONTINUOUS
 62
    7
 10
86.952755146999991
 20
218.42971384570001
 11
86.954257929699992
 21
218.45731947100001
  0
LINE
  8
_0-0_0
  6
CONTINUOUS
 62
    7
 10
86.954257929699992
 20
218.45731947100001
 11
86.955420118799992
 21
218.49197225470002
  0
LINE
  8
_0-0_0
  6
CONTINUOUS
 62
    7
 10
86.955420118799992
 20
218.49197225470002
 11
86.956142562799997
 21
218.53066136690001
  0
LINE
  8
_0-0_0
  6
CONTINUOUS
 62
    7
 10
86.956142562799997
 20
218.53066136690001
 11
86.956449059400001
 21
218.5745793918
  0
LINE
  8
_0-0_0
  6
CONTINUOUS
 62
    7
 10
86.956449059400001
 20
218.5745793918
 11
86.956314398999993
 21
218.62008644730003
  0
LINE
  8
_0-0_0
  6
CONTINUOUS
 62
    7
 10
86.956314398999993
 20
218.62008644730003
 11
86.955733724299989
 21
218.66845105120001
  0
LINE
  8
_0-0_0
  6
CONTINUOUS
 62
    7
 10
86.955733724299989
 20
218.66845105120001
 11
86.954753813299988
 21
218.71566379750001
  0
LINE
  8
_0-0_0
  6
CONTINUOUS
 62
    7
 10
86.954753813299988
 20
218.71566379750001
 11
86.953348128199991
 21
218.76303224100002
  0
LINE
  8
_0-0_0
  6
CONTINUOUS
 62
    7
 10
86.953348128199991
 20
218.76303224100002
 11
86.951637095099997
 21
218.80651155560003
  0
LINE
  8
_0-0_0
  6
CONTINUOUS
 62
    7
 10
86.951637095099997
 20
218.80651155560003
 11
86.949569449399988
 21
218.84742430600002
  0
LINE
  8
_0-0_0
  6
CONTINUOUS
 62
    7
 10
86.949569449399988
 20
218.84742430600002
 11
86.947316951999994
 21
218.88236937560001
  0
LINE
  8
_0-0_0
  6
CONTINUOUS
 62
    7
 10
86.947316951999994
 20
218.88236937560001
 11
86.944816184299995
 21
218.91231772470002
  0
LINE
  8
_0-0_0
  6
CONTINUOUS
 62
    7
 10
86.944816184299995
 20
218.91231772470002
 11
86.940410316200001
 21
218.94653655160002
  0
LINE
  8
_0-0_0
  6
CONTINUOUS
 62
    7
 10
86.940410316200001
 20
218.94653655160002
 11
86.93751424349999
 21
218.95446456740001
  0
ARC
  8
_0-0_0
  6
CONTINUOUS
 62
    7
 10
86.985203477199988
 20
218.93785869620001
 40
0.0541495088509802
 50
161.75899226000001
 51
179.05615679429999
  0
LINE
  8
_0-0_0
  6
CONTINUOUS
 62
    7
 10
86.940855070200001
 20
218.4056834273
 11
86.941704628099998
 21
218.40014668820001
  0
LINE
  8
_0-0_0
  6
CONTINUOUS
 62
    7
 10
86.941704628099998
 20
218.40014668820001
 11
86.942467173099999
 21
218.39663982050001
  0
ARC
  8
_0-0_0
  6
CONTINUOUS
 62
    7
 10
86.955051234099997
 20
218.3948487529
 40
0.0127108817751483
 50
171.89959594210001
 51
273.74868082670002
  0
ARC
  8
_0-0_0
  6
CONTINUOUS
 62
    7
 10
86.964776282199992
 20
218.39765436320002
 40
0.0156746466611605
 50
183.2795770349
 51
291.29385967539997
  0
LINE
  8
_0-0_0
  6
CONTINUOUS
 62
    7
 10
86.94911263409999
 20
218.397438795
 11
86.949127306400001
 21
218.39675764540002
  0
LINE
  8
_0-0_0
  6
CONTINUOUS
 62
    7
 10
86.948725228699999
 20
218.4162292634
 11
86.94911263409999
 21
218.397438795
  0
LINE
  8
_0-0_0
  6
CONTINUOUS
 62
    7
 10
86.936588039199989
 20
218.93845933380001
 11
86.940049535199989
 21
218.93024852260001
  0
LINE
  8
_0-0_0
  6
CONTINUOUS
 62
    7
 10
86.940049535199989
 20
218.93024852260001
 11
86.942133299299996
 21
218.91812280260001
  0
LINE
  8
_0-0_0
  6
CONTINUOUS
 62
    7
 10
86.942133299299996
 20
218.91812280260001
 11
86.944419712499993
 21
218.8987004793
  0
LINE
  8
_0-0_0
  6
CONTINUOUS
 62
    7
 10
86.944419712499993
 20
218.8987004793
 11
86.946837313399996
 21
218.87064221850002
  0
LINE
  8
_0-0_0
  6
CONTINUOUS
 62
    7
 10
86.946837313399996
 20
218.87064221850002
 11
86.949264309299991
 21
218.83315548660002
  0
LINE
  8
_0-0_0
  6
CONTINUOUS
 62
    7
 10
86.949264309299991
 20
218.83315548660002
 11
86.951529888799996
 21
218.78648180430002
  0
LINE
  8
_0-0_0
  6
CONTINUOUS
 62
    7
 10
86.951529888799996
 20
218.78648180430002
 11
86.953434390199988
 21
218.73230077850002
  0
LINE
  8
_0-0_0
  6
CONTINUOUS
 62
    7
 10
86.953434390199988
 20
218.73230077850002
 11
86.95478999129999
 21
218.67378476410002
  0
LINE
  8
_0-0_0
  6
CONTINUOUS
 62
    7
 10
86.95478999129999
 20
218.67378476410002
 11
86.955470139199988
 21
218.61510910550001
  0
LINE
  8
_0-0_0
  6
CONTINUOUS
 62
    7
 10
86.955470139199988
 20
218.61510910550001
 11
86.955444613599994
 21
218.5605160984
  0
LINE
  8
_0-0_0
  6
CONTINUOUS
 62
    7
 10
86.955444613599994
 20
218.5605160984
 11
86.95478196389999
 21
218.51334566770001
  0
LINE
  8
_0-0_0
  6
CONTINUOUS
 62
    7
 10
86.95478196389999
 20
218.51334566770001
 11
86.953620453100001
 21
218.47546545580002
  0
LINE
  8
_0-0_0
  6
CONTINUOUS
 62
    7
 10
86.953620453100001
 20
218.47546545580002
 11
86.952125360499991
 21
218.4472504046
  0
LINE
  8
_0-0_0
  6
CONTINUOUS
 62
    7
 10
86.952125360499991
 20
218.4472504046
 11
86.950452497099988
 21
218.42796118630002
  0
LINE
  8
_0-0_0
  6
CONTINUOUS
 62
    7
 10
86.950452497099988
 20
218.42796118630002
 11
86.948725228699999
 21
218.4162292634
  0
LINE
  8
_0-0_0
  6
CONTINUOUS
 62
    7
 10
86.942499191699994
 20
218.40582825710001
 11
86.942470189799991
 21
218.39732393850002
  0
LINE
  8
_0-0_0
  6
CONTINUOUS
 62
    7
 10
86.942467173099999
 20
218.39663982050001
 11
86.942470189799991
 21
218.39732393850002
  0
LINE
  8
_0-0_0
  6
CONTINUOUS
 62
    7
 10
91.950245834699999
 20
219.10824302450001
 11
91.951122079699999
 21
219.10642604060001
  0
LINE
  8
_0-0_0
  6
CONTINUOUS
 62
    7
 10
91.951122079699999
 20
219.10642604060001
 11
91.9542973123
 21
219.08952425130002
  0
LINE
  8
_0-0_0
  6
CONTINUOUS
 62
    7
 10
91.9542973123
 20
219.08952425130002
 11
91.957535554799989
 21
219.06274112740002
  0
LINE
  8
_0-0_0
  6
CONTINUOUS
 62
    7
 10
91.957535554799989
 20
219.06274112740002
 11
91.960566405799995
 21
219.02830533120002
  0
LINE
  8
_0-0_0
  6
CONTINUOUS
 62
    7
 10
91.960566405799995
 20
219.02830533120002
 11
91.963475606999992
 21
218.98523475140001
  0
LINE
  8
_0-0_0
  6
CONTINUOUS
 62
    7
 10
91.963475606999992
 20
218.98523475140001
 11
91.966016766799996
 21
218.93719262280001
  0
LINE
  8
_0-0_0
  6
CONTINUOUS
 62
    7
 10
91.966016766799996
 20
218.93719262280001
 11
91.968265729099997
 21
218.88276095670003
  0
LINE
  8
_0-0_0
  6
CONTINUOUS
 62
    7
 10
91.968265729099997
 20
218.88276095670003
 11
91.970037089099989
 21
218.82637897870001
  0
LINE
  8
_0-0_0
  6
CONTINUOUS
 62
    7
 10
91.970037089099989
 20
218.82637897870001
 11
91.971376522499995
 21
218.7665375979
  0
LINE
  8
_0-0_0
  6
CONTINUOUS
 62
    7
 10
91.971376522499995
 20
218.7665375979
 11
91.972170019699988
 21
218.7084594243
  0
LINE
  8
_0-0_0
  6
CONTINUOUS
 62
    7
 10
91.972170019699988
 20
218.7084594243
 11
91.972444932599998
 21
218.65028089770001
  0
LINE
  8
_0-0_0
  6
CONTINUOUS
 62
    7
 10
91.972444932599998
 20
218.65028089770001
 11
91.972176988599998
 21
218.59674624670001
  0
LINE
  8
_0-0_0
  6
CONTINUOUS
 62
    7
 10
91.972176988599998
 20
218.59674624670001
 11
91.971358123399995
 21
218.54645449930001
  0
LINE
  8
_0-0_0
  6
CONTINUOUS
 62
    7
 10
91.971358123399995
 20
218.54645449930001
 11
91.970057263099989
 21
218.50367844920001
  0
LINE
  8
_0-0_0
  6
CONTINUOUS
 62
    7
 10
91.970057263099989
 20
218.50367844920001
 11
91.968237014699994
 21
218.46713583230002
  0
LINE
  8
_0-0_0
  6
CONTINUOUS
 62
    7
 10
91.968237014699994
 20
218.46713583230002
 11
91.966049940199994
 21
218.43988564880001
  0
LINE
  8
_0-0_0
  6
CONTINUOUS
 62
    7
 10
91.966049940199994
 20
218.43988564880001
 11
91.9634331317
 21
218.42115511520001
  0
LINE
  8
_0-0_0
  6
CONTINUOUS
 62
    7
 10
91.9634331317
 20
218.42115511520001
 11
91.962630076299988
 21
218.41763035960003
  0
ARC
  8
_0-0_0
  6
CONTINUOUS
 62
    7
 10
91.947795880000001
 20
218.41672077040002
 40
0.0148620568670619
 50
254.59842420659999
 51
3.5088153934000168
  0
LINE
  8
_0-0_0
  6
CONTINUOUS
 62
    7
 10
86.990488296799995
 20
218.38321451940001
 11
86.990287259900001
 21
218.38241332710001
  0
LINE
  8
_0-0_0
  6
CONTINUOUS
 62
    7
 10
86.990287259900001
 20
218.38241332710001
 11
86.990190187499991
 21
218.38242868340001
  0
LINE
  8
_0-0_0
  6
CONTINUOUS
 62
    7
 10
91.923950232899998
 20
218.40238287620002
 11
91.923742394999991
 21
218.40182121950002
  0
LINE
  8
_0-0_0
  6
CONTINUOUS
 62
    7
 10
91.923742394999991
 20
218.40182121950002
 11
91.923704388499999
 21
218.4018688571
  0
ARC
  8
_0-0_0
  6
CONTINUOUS
 62
    7
 10
91.630707345299996
 20
218.41715877430002
 40
0.2924621010234527
 50
352.15101289569998
 51
3.9312008567999963
  0
LINE
  8
_0-0_0
  6
CONTINUOUS
 62
    7
 10
86.988643292099994
 20
218.3823114365
 11
86.988502968199995
 21
218.37409501810001
  0
LINE
  8
_0-0_0
  6
CONTINUOUS
 62
    7
 10
86.988502968199995
 20
218.37409501810001
 11
86.987724830899992
 21
218.3610906287
  0
LINE
  8
_0-0_0
  6
CONTINUOUS
 62
    7
 10
86.987724830899992
 20
218.3610906287
 11
86.986619409399992
 21
218.35652409440002
  0
LINE
  8
_0-0_0
  6
CONTINUOUS
 62
    7
 10
86.986619409399992
 20
218.35652409440002
 11
86.986618171799989
 21
218.35652856410002
  0
LINE
  8
_0-0_0
  6
CONTINUOUS
 62
    7
 10
91.9441317215
 20
219.10730534880003
 11
91.945229797099998
 21
219.10963513910002
  0
POINT
  8
_0-0_0
 62
    7
 10
93.595436737999989
 20
223.10322961520001
  0
INSERT
  2
-003-_D_2
  8
_0-0_0
 10
-5.9000000000000057
 20
8.8000000000000114
 41
1
 42
1
 50
0
  0
LINE
  8
_0-0_0
  6
CONTINUOUS
 62
    7
 10
42.518043920099984
 20
249.33334543140001
 11
44.788857077113136
 21
249.23329695923582
  0
LINE
  8
_0-0_0
  6
CONTINUOUS
 62
    7
 10
45.853283189978015
 20
249.23329695922178
 11
48.123790993200004
 21
249.3334750839
  0
LINE
  8
_0-0_0
  6
CONTINUOUS
 62
    7
 10
91.85996789219999
 20
214.9028306296
 11
92.528227494650253
 21
217.8041977846006
  0
ENDSEC
  0
EOF
