  0
SECTION
  2
HEADER
  9
$ACADVER
  1
AC1009
  9
$DWGCODEPAGE
  3
dos932
  9
$INSBASE
 10
0.0
 20
0.0
 30
0.0
  9
$EXTMIN
 10
0.0
 20
0.0
 30
0.0
  9
$EXTMAX
 10
431.8
 20
279.4
 30
0.0
  9
$LIMMIN
 10
0.0
 20
0.0
  9
$LIMMAX
 10
431.8
 20
279.4
  9
$ORTHOMODE
 70
     0
  9
$REGENMODE
 70
     1
  9
$FILLMODE
 70
     1
  9
$QTEXTMODE
 70
     0
  9
$MIRRTEXT
 70
     1
  9
$DRAGMODE
 70
     2
  9
$LTSCALE
 40
1.0
  9
$OSMODE
 70
    37
  9
$ATTMODE
 70
     1
  9
$TEXTSIZE
 40
3.5
  9
$TRACEWID
 40
1.0
  9
$TEXTSTYLE
  7
STANDARD
  9
$CLAYER
  8
0
  9
$CELTYPE
  6
BYLAYER
  9
$CECOLOR
 62
   256
  9
$DIMSCALE
 40
1.0
  9
$DIMASZ
 40
4.0
  9
$DIMEXO
 40
1.0
  9
$DIMDLI
 40
3.75
  9
$DIMRND
 40
0.0
  9
$DIMDLE
 40
0.0
  9
$DIMEXE
 40
1.0
  9
$DIMTP
 40
0.0
  9
$DIMTM
 40
0.0
  9
$DIMTXT
 40
3.5
  9
$DIMCEN
 40
2.5
  9
$DIMTSZ
 40
0.0
  9
$DIMTOL
 70
     0
  9
$DIMLIM
 70
     0
  9
$DIMTIH
 70
     1
  9
$DIMTOH
 70
     1
  9
$DIMSE1
 70
     0
  9
$DIMSE2
 70
     0
  9
$DIMTAD
 70
     1
  9
$DIMZIN
 70
     0
  9
$DIMBLK
  1

  9
$DIMASO
 70
     1
  9
$DIMSHO
 70
     1
  9
$DIMPOST
  1

  9
$DIMAPOST
  1

  9
$DIMALT
 70
     0
  9
$DIMALTD
 70
     3
  9
$DIMALTF
 40
0.0393700787
  9
$DIMLFAC
 40
1.0
  9
$DIMTOFL
 70
     1
  9
$DIMTVP
 40
0.0
  9
$DIMTIX
 70
     0
  9
$DIMSOXD
 70
     0
  9
$DIMSAH
 70
     0
  9
$DIMBLK1
  1

  9
$DIMBLK2
  1

  9
$DIMSTYLE
  2
ISO-25
  9
$DIMCLRD
 70
     0
  9
$DIMCLRE
 70
     0
  9
$DIMCLRT
 70
     0
  9
$DIMTFAC
 40
1.0
  9
$DIMGAP
 40
1.524
  9
$LUNITS
 70
     2
  9
$LUPREC
 70
     2
  9
$SKETCHINC
 40
1.0
  9
$FILLETRAD
 40
10.0
  9
$AUNITS
 70
     0
  9
$AUPREC
 70
     2
  9
$MENU
  1
.
  9
$ELEVATION
 40
0.0
  9
$PELEVATION
 40
0.0
  9
$THICKNESS
 40
0.0
  9
$LIMCHECK
 70
     0
  9
$CHAMFERA
 40
0.0
  9
$CHAMFERB
 40
0.0
  9
$SKPOLY
 70
     0
  9
$TDCREATE
 40
2458978.498683461
  9
$TDUPDATE
 40
2458978.498684166
  9
$TDINDWG
 40
0.0000000116
  9
$TDUSRTIMER
 40
0.0000000116
  9
$USRTIMER
 70
     1
  9
$ANGBASE
 50
0.0
  9
$ANGDIR
 70
     0
  9
$PDMODE
 70
     0
  9
$PDSIZE
 40
-1.0
  9
$PLINEWID
 40
0.0
  9
$COORDS
 70
     1
  9
$SPLFRAME
 70
     0
  9
$SPLINETYPE
 70
     6
  9
$SPLINESEGS
 70
     8
  9
$ATTDIA
 70
     0
  9
$ATTREQ
 70
     1
  9
$HANDLING
 70
     1
  9
$HANDSEED
  5
293
  9
$SURFTAB1
 70
     6
  9
$SURFTAB2
 70
     6
  9
$SURFTYPE
 70
     6
  9
$SURFU
 70
     6
  9
$SURFV
 70
     6
  9
$UCSNAME
  2

  9
$UCSORG
 10
0.0
 20
0.0
 30
0.0
  9
$UCSXDIR
 10
1.0
 20
0.0
 30
0.0
  9
$UCSYDIR
 10
0.0
 20
1.0
 30
0.0
  9
$PUCSNAME
  2

  9
$PUCSORG
 10
0.0
 20
0.0
 30
0.0
  9
$PUCSXDIR
 10
1.0
 20
0.0
 30
0.0
  9
$PUCSYDIR
 10
0.0
 20
1.0
 30
0.0
  9
$USERI1
 70
     0
  9
$USERI2
 70
     0
  9
$USERI3
 70
     0
  9
$USERI4
 70
     0
  9
$USERI5
 70
     0
  9
$USERR1
 40
0.0
  9
$USERR2
 40
0.0
  9
$USERR3
 40
0.0
  9
$USERR4
 40
0.0
  9
$USERR5
 40
0.0
  9
$WORLDVIEW
 70
     1
  9
$SHADEDGE
 70
     3
  9
$SHADEDIF
 70
    70
  9
$TILEMODE
 70
     1
  9
$MAXACTVP
 70
    64
  9
$PLIMCHECK
 70
     0
  9
$PEXTMIN
 10
1.0000000000E+20
 20
1.0000000000E+20
 30
1.0000000000E+20
  9
$PEXTMAX
 10
-1.0000000000E+20
 20
-1.0000000000E+20
 30
-1.0000000000E+20
  9
$PLIMMIN
 10
0.0
 20
0.0
  9
$PLIMMAX
 10
420.0
 20
297.0
  9
$UNITMODE
 70
     0
  9
$VISRETAIN
 70
     1
  9
$PLINEGEN
 70
     0
  9
$PSLTSCALE
 70
     1
  0
ENDSEC
  0
SECTION
  2
TABLES
  0
TABLE
  2
VPORT
 70
     1
  0
VPORT
  2
*ACTIVE
 70
     0
 10
0.0
 20
0.0
 11
1.0
 21
1.0
 12
215.9
 22
139.7
 13
0.0
 23
0.0
 14
10.0
 24
10.0
 15
10.0
 25
10.0
 16
0.0
 26
0.0
 36
1.0
 17
0.0
 27
0.0
 37
0.0
 40
279.4
 41
1.5454545455
 42
50.0
 43
0.0
 44
0.0
 50
0.0
 51
0.0
 71
     0
 72
  2000
 73
     1
 74
     3
 75
     0
 76
     0
 77
     0
 78
     0
  0
ENDTAB
  0
TABLE
  2
LTYPE
 70
     6
  0
LTYPE
  2
CONTINUOUS
 70
     0
  3
Solid line
 72
    65
 73
     0
 40
0.0
  0
LTYPE
  2
HIDDEN
 70
     0
  3
Hidden __ __ __ __ __ __ __ __ __ __ __ __ __ __
 72
    65
 73
     2
 40
1.905
 49
1.27
 49
-0.635
  0
LTYPE
  2
PHANTOM
 70
     0
  3
Phantom ______  __  __  ______  __  __  ______
 72
    65
 73
     6
 40
12.7
 49
6.35
 49
-1.27
 49
1.27
 49
-1.27
 49
1.27
 49
-1.27
  0
LTYPE
  2
CENTER
 70
     0
  3
Center ____ _ ____ _ ____ _ ____ _ ____ _ ____
 72
    65
 73
     4
 40
10.16
 49
6.35
 49
-1.27
 49
1.27
 49
-1.27
  0
LTYPE
  2
CENTERX2
 70
     0
  3
Center (2x) ________  __  ________  __  _____
 72
    65
 73
     4
 40
20.32
 49
12.7
 49
-2.54
 49
2.54
 49
-2.54
  0
LTYPE
  2
DOT2
 70
     0
  3
Dot (.5x) ........................................
 72
    65
 73
     2
 40
0.635
 49
0.0
 49
-0.635
  0
ENDTAB
  0
TABLE
  2
LAYER
 70
     1
  0
LAYER
  2
0
 70
     0
 62
     7
  6
CONTINUOUS
  0
ENDTAB
  0
TABLE
  2
STYLE
 70
     1
  0
STYLE
  2
STANDARD
 70
     0
 40
0.0
 41
1.0
 50
0.0
 71
     0
 42
3.5
  3
txt
  4
bigfont
  0
ENDTAB
  0
TABLE
  2
VIEW
 70
     0
  0
ENDTAB
  0
TABLE
  2
UCS
 70
     0
  0
ENDTAB
  0
TABLE
  2
APPID
 70
     1
  0
APPID
  2
ACAD
 70
     0
  0
ENDTAB
  0
TABLE
  2
DIMSTYLE
 70
     1
  0
DIMSTYLE
  2
ISO-25
 70
     0
  3

  4

  5

  6

  7

 40
1.0
 41
2.5
 42
0.625
 43
3.75
 44
1.25
 45
0.0
 46
0.0
 47
0.0
 48
0.0
140
2.5
141
2.5
142
0.0
143
0.0393700787
144
1.0
145
0.0
146
1.0
147
0.625
 71
     0
 72
     0
 73
     0
 74
     0
 75
     0
 76
     0
 77
     1
 78
     8
170
     0
171
     3
172
     1
173
     0
174
     0
175
     0
176
     0
177
     0
178
     0
  0
ENDTAB
  0
ENDSEC
  0
SECTION
  2
BLOCKS
  0
BLOCK
  8
0
  2
$MODEL_SPACE
 70
     0
 10
0.0
 20
0.0
 30
0.0
  3
$MODEL_SPACE
  1

  0
ENDBLK
  5
21
  8
0
  0
BLOCK
 67
     1
  8
0
  2
$PAPER_SPACE
 70
     0
 10
0.0
 20
0.0
 30
0.0
  3
$PAPER_SPACE
  1

  0
ENDBLK
  5
1D
 67
     1
  8
0
  0
ENDSEC
  0
SECTION
  2
ENTITIES
  0
TEXT
  5
73
  8
0
  6
CONTINUOUS
 62
     7
 10
-547.0863925689
 20
-1027.567720336
 30
0.0
 40
26.4583333333
  1
MO BRIDGE SMALL DESK
 41
0.6475
 11
-547.0863925689
 21
-1041.2537640508
 31
0.0
 73
     1
  0
LINE
  5
74
  8
0
  6
CONTINUOUS
 62
     7
 10
-831.006476117
 20
-403.9620051112
 30
0.0
 11
125.3012032978
 21
-403.9620051112
 31
0.0
  0
LINE
  5
75
  8
0
  6
CONTINUOUS
 62
     7
 10
120.1919527523
 20
-345.0951764312
 30
0.0
 11
-825.8972255715
 21
-345.0951764312
 31
0.0
  0
POLYLINE
  5
76
  8
0
  6
CONTINUOUS
 62
     7
 66
     1
 10
0.0
 20
0.0
 30
0.0
 70
   128
  0
VERTEX
  5
123
  8
0
  6
CONTINUOUS
 62
     7
 10
-902.7740149029
 20
-159.5285797443
 30
0.0
  0
VERTEX
  5
124
  8
0
  6
CONTINUOUS
 62
     7
 10
-906.4076332577
 20
-159.5694685306
 30
0.0
  0
VERTEX
  5
125
  8
0
  6
CONTINUOUS
 62
     7
 10
-910.2354435452
 20
-159.7129965152
 30
0.0
  0
SEQEND
  5
26B
  8
0
  6
CONTINUOUS
 62
     7
  0
POLYLINE
  5
77
  8
0
  6
CONTINUOUS
 62
     7
 66
     1
 10
0.0
 20
0.0
 30
0.0
 70
   128
  0
VERTEX
  5
126
  8
0
  6
CONTINUOUS
 62
     7
 10
197.0687122814
 20
-194.528576168
 30
0.0
  0
VERTEX
  5
127
  8
0
  6
CONTINUOUS
 62
     7
 10
200.7023306362
 20
-194.4876873817
 30
0.0
  0
VERTEX
  5
128
  8
0
  6
CONTINUOUS
 62
     7
 10
204.5301409236
 20
-194.3441891994
 30
0.0
  0
SEQEND
  5
26C
  8
0
  6
CONTINUOUS
 62
     7
  0
POLYLINE
  5
78
  8
0
  6
CONTINUOUS
 62
     7
 66
     1
 10
0.0
 20
0.0
 30
0.0
 70
   128
  0
VERTEX
  5
129
  8
0
  6
CONTINUOUS
 62
     7
 10
204.5301409236
 20
-159.7129965152
 30
0.0
  0
VERTEX
  5
12A
  8
0
  6
CONTINUOUS
 62
     7
 10
200.7023306362
 20
-159.5694685306
 30
0.0
  0
VERTEX
  5
12B
  8
0
  6
CONTINUOUS
 62
     7
 10
197.0687122814
 20
-159.5285797443
 30
0.0
  0
SEQEND
  5
26D
  8
0
  6
CONTINUOUS
 62
     7
  0
POLYLINE
  5
79
  8
0
  6
CONTINUOUS
 62
     7
 66
     1
 10
0.0
 20
0.0
 30
0.0
 70
   128
  0
VERTEX
  5
12C
  8
0
  6
CONTINUOUS
 62
     7
 10
-910.2354435452
 20
-194.3441891994
 30
0.0
  0
VERTEX
  5
12D
  8
0
  6
CONTINUOUS
 62
     7
 10
-906.4076332577
 20
-194.4876873817
 30
0.0
  0
VERTEX
  5
12E
  8
0
  6
CONTINUOUS
 62
     7
 10
-902.7740149029
 20
-194.528576168
 30
0.0
  0
SEQEND
  5
26E
  8
0
  6
CONTINUOUS
 62
     7
  0
ARC
  5
7A
  8
0
  6
CONTINUOUS
 62
     7
 10
185.4323519577
 20
-876.5285897386
 30
0.0
 40
2.999988813617164
 50
188.6703842158
 51
269.9996933285
  0
ARC
  5
7B
  8
0
  6
CONTINUOUS
 62
     7
 10
208.1238686202
 20
-876.5286647466
 30
0.0
 40
2.999913807386028
 50
269.9980125747
 51
3.6114505567
  0
POLYLINE
  5
7C
  8
0
  6
CONTINUOUS
 62
     7
 66
     1
 10
0.0
 20
0.0
 30
0.0
 70
   128
  0
VERTEX
  5
12F
  8
0
  6
CONTINUOUS
 62
     7
 10
109.018406438
 20
-194.5272946682
 30
0.0
  0
VERTEX
  5
130
  8
0
  6
CONTINUOUS
 62
     7
 10
110.2900119297
 20
-214.3481934395
 30
0.0
  0
VERTEX
  5
131
  8
0
  6
CONTINUOUS
 62
     7
 10
113.8394089214
 20
-264.736335906
 30
0.0
  0
VERTEX
  5
132
  8
0
  6
CONTINUOUS
 62
     7
 10
117.7038760654
 20
-315.0990569915
 30
0.0
  0
VERTEX
  5
133
  8
0
  6
CONTINUOUS
 62
     7
 10
121.8832345478
 20
-365.4340693679
 30
0.0
  0
VERTEX
  5
134
  8
0
  6
CONTINUOUS
 62
     7
 10
126.3771863452
 20
-415.739115509
 30
0.0
  0
VERTEX
  5
135
  8
0
  6
CONTINUOUS
 62
     7
 10
131.1854930393
 20
-466.0119374234
 30
0.0
  0
VERTEX
  5
136
  8
0
  6
CONTINUOUS
 62
     7
 10
136.3078566066
 20
-516.2502864327
 30
0.0
  0
VERTEX
  5
137
  8
0
  6
CONTINUOUS
 62
     7
 10
141.7440386287
 20
-566.451903614
 30
0.0
  0
VERTEX
  5
138
  8
0
  6
CONTINUOUS
 62
     7
 10
147.4936814777
 20
-616.6145319071
 30
0.0
  0
VERTEX
  5
139
  8
0
  6
CONTINUOUS
 62
     7
 10
153.5564275257
 20
-666.7358839836
 30
0.0
  0
VERTEX
  5
13A
  8
0
  6
CONTINUOUS
 62
     7
 10
159.9319191448
 20
-716.8137395706
 30
0.0
  0
VERTEX
  5
13B
  8
0
  6
CONTINUOUS
 62
     7
 10
166.6198583118
 20
-766.8458485927
 30
0.0
  0
VERTEX
  5
13C
  8
0
  6
CONTINUOUS
 62
     7
 10
173.6197681896
 20
-816.8299758758
 30
0.0
  0
VERTEX
  5
13D
  8
0
  6
CONTINUOUS
 62
     7
 10
180.9312911502
 20
-866.7638564434
 30
0.0
  0
VERTEX
  5
13E
  8
0
  6
CONTINUOUS
 62
     7
 10
182.4920387737
 20
-876.9769037094
 30
0.0
  0
SEQEND
  5
26F
  8
0
  6
CONTINUOUS
 62
     7
  0
POLYLINE
  5
7D
  8
0
  6
CONTINUOUS
 62
     7
 66
     1
 10
0.0
 20
0.0
 30
0.0
 70
   128
  0
VERTEX
  5
13F
  8
0
  6
CONTINUOUS
 62
     7
 10
211.0884995929
 20
-876.3503098812
 30
0.0
  0
VERTEX
  5
140
  8
0
  6
CONTINUOUS
 62
     7
 10
210.3477926723
 20
-863.5509276714
 30
0.0
  0
VERTEX
  5
141
  8
0
  6
CONTINUOUS
 62
     7
 10
207.1137042514
 20
-813.1395840969
 30
0.0
  0
VERTEX
  5
142
  8
0
  6
CONTINUOUS
 62
     7
 10
203.5643072597
 20
-762.7514267292
 30
0.0
  0
VERTEX
  5
143
  8
0
  6
CONTINUOUS
 62
     7
 10
199.6998401157
 20
-712.3887205448
 30
0.0
  0
VERTEX
  5
144
  8
0
  6
CONTINUOUS
 62
     7
 10
195.5204816333
 20
-662.0537007179
 30
0.0
  0
VERTEX
  5
145
  8
0
  6
CONTINUOUS
 62
     7
 10
191.0265298358
 20
-611.7486620273
 30
0.0
  0
VERTEX
  5
146
  8
0
  6
CONTINUOUS
 62
     7
 10
186.2182231418
 20
-561.4758321967
 30
0.0
  0
VERTEX
  5
147
  8
0
  6
CONTINUOUS
 62
     7
 10
181.0957999698
 20
-511.2374873783
 30
0.0
  0
VERTEX
  5
148
  8
0
  6
CONTINUOUS
 62
     7
 10
175.6596775524
 20
-461.0358664717
 30
0.0
  0
VERTEX
  5
149
  8
0
  6
CONTINUOUS
 62
     7
 10
169.9100347034
 20
-410.8732456293
 30
0.0
  0
VERTEX
  5
14A
  8
0
  6
CONTINUOUS
 62
     7
 10
163.8472886554
 20
-360.7518861022
 30
0.0
  0
VERTEX
  5
14B
  8
0
  6
CONTINUOUS
 62
     7
 10
157.4717374317
 20
-310.6740379657
 30
0.0
  0
VERTEX
  5
14C
  8
0
  6
CONTINUOUS
 62
     7
 10
150.7838578693
 20
-260.6419289436
 30
0.0
  0
VERTEX
  5
14D
  8
0
  6
CONTINUOUS
 62
     7
 10
143.7838883869
 20
-210.6578016605
 30
0.0
  0
VERTEX
  5
14E
  8
0
  6
CONTINUOUS
 62
     7
 10
141.421994733
 20
-194.5273244705
 30
0.0
  0
SEQEND
  5
270
  8
0
  6
CONTINUOUS
 62
     7
  0
POLYLINE
  5
7E
  8
0
  6
CONTINUOUS
 62
     7
 66
     1
 10
0.0
 20
0.0
 30
0.0
 70
   128
  0
VERTEX
  5
14F
  8
0
  6
CONTINUOUS
 62
     7
 10
-847.127058936
 20
-194.5273542728
 30
0.0
  0
VERTEX
  5
150
  8
0
  6
CONTINUOUS
 62
     7
 10
-849.5131818779
 20
-210.8253205147
 30
0.0
  0
VERTEX
  5
151
  8
0
  6
CONTINUOUS
 62
     7
 10
-856.517651511
 20
-260.8503216829
 30
0.0
  0
VERTEX
  5
152
  8
0
  6
CONTINUOUS
 62
     7
 10
-863.2086007126
 20
-310.9159583177
 30
0.0
  0
VERTEX
  5
153
  8
0
  6
CONTINUOUS
 62
     7
 10
-869.5858208664
 20
-361.0199654426
 30
0.0
  0
VERTEX
  5
154
  8
0
  6
CONTINUOUS
 62
     7
 10
-875.6490735539
 20
-411.1600743558
 30
0.0
  0
VERTEX
  5
155
  8
0
  6
CONTINUOUS
 62
     7
 10
-881.3981501587
 20
-461.3340219434
 30
0.0
  0
VERTEX
  5
156
  8
0
  6
CONTINUOUS
 62
     7
 10
-886.8328420647
 20
-511.5395450916
 30
0.0
  0
VERTEX
  5
157
  8
0
  6
CONTINUOUS
 62
     7
 10
-891.9529704579
 20
-561.7743844118
 30
0.0
  0
VERTEX
  5
158
  8
0
  6
CONTINUOUS
 62
     7
 10
-896.7583863266
 20
-612.0362395372
 30
0.0
  0
VERTEX
  5
159
  8
0
  6
CONTINUOUS
 62
     7
 10
-901.2489108571
 20
-662.3228454914
 30
0.0
  0
VERTEX
  5
15A
  8
0
  6
CONTINUOUS
 62
     7
 10
-905.4245142468
 20
-712.6319223966
 30
0.0
  0
VERTEX
  5
15B
  8
0
  6
CONTINUOUS
 62
     7
 10
-909.2849878796
 20
-762.9612052765
 30
0.0
  0
VERTEX
  5
15C
  8
0
  6
CONTINUOUS
 62
     7
 10
-912.8303317555
 20
-813.3084142532
 30
0.0
  0
VERTEX
  5
15D
  8
0
  6
CONTINUOUS
 62
     7
 10
-916.0604266652
 20
-863.6712992515
 30
0.0
  0
VERTEX
  5
15E
  8
0
  6
CONTINUOUS
 62
     7
 10
-916.7940406331
 20
-876.3502800789
 30
0.0
  0
SEQEND
  5
271
  8
0
  6
CONTINUOUS
 62
     7
  0
POLYLINE
  5
7F
  8
0
  6
CONTINUOUS
 62
     7
 66
     1
 10
0.0
 20
0.0
 30
0.0
 70
   128
  0
VERTEX
  5
15F
  8
0
  6
CONTINUOUS
 62
     7
 10
-888.1975500115
 20
-876.9768441047
 30
0.0
  0
VERTEX
  5
160
  8
0
  6
CONTINUOUS
 62
     7
 10
-886.6187421807
 20
-866.6445875492
 30
0.0
  0
VERTEX
  5
161
  8
0
  6
CONTINUOUS
 62
     7
 10
-879.3010501393
 20
-816.6624570217
 30
0.0
  0
VERTEX
  5
162
  8
0
  6
CONTINUOUS
 62
     7
 10
-872.2966103085
 20
-766.6374409523
 30
0.0
  0
VERTEX
  5
163
  8
0
  6
CONTINUOUS
 62
     7
 10
-865.6056313046
 20
-716.5718043174
 30
0.0
  0
VERTEX
  5
164
  8
0
  6
CONTINUOUS
 62
     7
 10
-859.2284111508
 20
-666.4677971925
 30
0.0
  0
VERTEX
  5
165
  8
0
  6
CONTINUOUS
 62
     7
 10
-853.1651584633
 20
-616.3276994552
 30
0.0
  0
VERTEX
  5
166
  8
0
  6
CONTINUOUS
 62
     7
 10
-847.4160818585
 20
-566.1537462797
 30
0.0
  0
VERTEX
  5
167
  8
0
  6
CONTINUOUS
 62
     7
 10
-841.9813899525
 20
-515.9482249942
 30
0.0
  0
VERTEX
  5
168
  8
0
  6
CONTINUOUS
 62
     7
 10
-836.8612615593
 20
-465.7133900978
 30
0.0
  0
VERTEX
  5
169
  8
0
  6
CONTINUOUS
 62
     7
 10
-832.0558456906
 20
-415.4515268233
 30
0.0
  0
VERTEX
  5
16A
  8
0
  6
CONTINUOUS
 62
     7
 10
-827.5652913578
 20
-365.1649245944
 30
0.0
  0
VERTEX
  5
16B
  8
0
  6
CONTINUOUS
 62
     7
 10
-823.3897177704
 20
-314.8558551397
 30
0.0
  0
VERTEX
  5
16C
  8
0
  6
CONTINUOUS
 62
     7
 10
-819.5292441376
 20
-264.5265722599
 30
0.0
  0
VERTEX
  5
16D
  8
0
  6
CONTINUOUS
 62
     7
 10
-815.9839002617
 20
-214.1793632831
 30
0.0
  0
VERTEX
  5
16E
  8
0
  6
CONTINUOUS
 62
     7
 10
-814.7235004433
 20
-194.5273244705
 30
0.0
  0
SEQEND
  5
272
  8
0
  6
CONTINUOUS
 62
     7
  0
ARC
  5
80
  8
0
  6
CONTINUOUS
 62
     7
 10
-891.1376103172
 20
-876.5286216166
 30
0.0
 40
2.999956935708866
 50
269.9994613208
 51
351.3053798981
  0
ARC
  5
81
  8
0
  6
CONTINUOUS
 62
     7
 10
-913.8290758196
 20
-876.5285870678
 30
0.0
 40
2.999991484392051
 50
176.4671189545
 51
270.0001649406
  0
ARC
  5
82
  8
0
  6
CONTINUOUS
 62
     7
 10
-633.0803301351
 20
-189.2897600259
 30
0.0
 40
10.26280086262666
 50
162.2145882468
 51
197.7854117532
  0
ARC
  5
83
  8
0
  6
CONTINUOUS
 62
     7
 10
-633.2891077759
 20
-184.0738292161
 30
0.0
 40
9.787354214792737
 50
167.724857636
 51
192.2767834539
  0
LINE
  5
84
  8
0
  6
CONTINUOUS
 62
     7
 10
-642.8526429661
 20
-177.0285928573
 30
0.0
 11
-642.8526429661
 21
-181.9929147091
 31
0.0
  0
LINE
  5
85
  8
0
  6
CONTINUOUS
 62
     7
 10
-642.8526429661
 20
-172.0642710056
 30
0.0
 11
-642.8526429661
 21
-177.0285928573
 31
0.0
  0
ARC
  5
86
  8
0
  6
CONTINUOUS
 62
     7
 10
-632.9762330441
 20
-169.983340519
 30
0.0
 40
10.09329002988696
 50
168.1009618656
 51
191.8978073258
  0
ARC
  5
87
  8
0
  6
CONTINUOUS
 62
     7
 10
-633.1013226662
 20
-164.7674107876
 30
0.0
 40
10.24281819105853
 50
162.1786404598
 51
197.8213595402
  0
ARC
  5
88
  8
0
  6
CONTINUOUS
 62
     7
 10
-633.4633867284
 20
-159.7119236316
 30
0.0
 40
9.583689633279514
 50
168.4390457667
 51
191.5609542333
  0
POLYLINE
  5
89
  8
0
  6
CONTINUOUS
 62
     7
 66
     1
 10
0.0
 20
0.0
 30
0.0
 70
   128
  0
VERTEX
  5
16F
  8
0
  6
CONTINUOUS
 62
     7
 10
-642.8526429661
 20
-157.7912533607
 30
0.0
  0
VERTEX
  5
170
  8
0
  6
CONTINUOUS
 62
     7
 10
-642.877125574
 20
-157.6511824455
 30
0.0
  0
VERTEX
  5
171
  8
0
  6
CONTINUOUS
 62
     7
 10
-642.9216055401
 20
-157.362070116
 30
0.0
  0
VERTEX
  5
172
  8
0
  6
CONTINUOUS
 62
     7
 10
-642.9625092276
 20
-156.7660832729
 30
0.0
  0
VERTEX
  5
173
  8
0
  6
CONTINUOUS
 62
     7
 10
-642.8772149809
 20
-156.5329695072
 30
0.0
  0
VERTEX
  5
174
  8
0
  6
CONTINUOUS
 62
     7
 10
-642.8526429661
 20
-156.5285885658
 30
0.0
  0
SEQEND
  5
273
  8
0
  6
CONTINUOUS
 62
     7
  0
LINE
  5
8A
  8
0
  6
CONTINUOUS
 62
     7
 10
-642.8526429661
 20
-156.5285885658
 30
0.0
 11
-62.8526298531
 21
-156.5285885658
 31
0.0
  0
LINE
  5
8B
  8
0
  6
CONTINUOUS
 62
     7
 10
-62.8526298531
 20
-156.5285885658
 30
0.0
 11
-62.8526298531
 21
-156.5294528331
 31
0.0
  0
LINE
  5
8C
  8
0
  6
CONTINUOUS
 62
     7
 10
-62.8526298531
 20
-156.5294528331
 30
0.0
 11
-62.8526298531
 21
-157.7912533607
 31
0.0
  0
ARC
  5
8D
  8
0
  6
CONTINUOUS
 62
     7
 10
-71.6015693527
 20
-159.7119236316
 30
0.0
 40
8.957282883597061
 50
347.6181724705
 51
12.3818275295
  0
ARC
  5
8E
  8
0
  6
CONTINUOUS
 62
     7
 10
-72.6040340392
 20
-164.7674107876
 30
0.0
 40
10.24289805199922
 50
342.1787840692
 51
17.8212159308
  0
ARC
  5
8F
  8
0
  6
CONTINUOUS
 62
     7
 10
-71.8098754224
 20
-169.9832493391
 30
0.0
 40
9.195808793395479
 50
346.9206005464
 51
13.0793994536
  0
LINE
  5
90
  8
0
  6
CONTINUOUS
 62
     7
 10
-62.8526298531
 20
-172.0642710056
 30
0.0
 11
-62.8526298531
 21
-177.0285928573
 31
0.0
  0
LINE
  5
91
  8
0
  6
CONTINUOUS
 62
     7
 10
-62.8526298531
 20
-177.0285928573
 30
0.0
 11
-62.8526298531
 21
-181.9929147091
 31
0.0
  0
ARC
  5
92
  8
0
  6
CONTINUOUS
 62
     7
 10
-71.9811624292
 20
-184.0738710106
 30
0.0
 40
9.362746938035942
 50
347.1574201973
 51
12.8417592696
  0
ARC
  5
93
  8
0
  6
CONTINUOUS
 62
     7
 10
-72.6249426842
 20
-189.2897600259
 30
0.0
 40
10.26280086262664
 50
342.2145882468
 51
17.7854117532
  0
ARC
  5
94
  8
0
  6
CONTINUOUS
 62
     7
 10
-71.9996308688
 20
-194.3452471819
 30
0.0
 40
9.346478433666055
 50
348.1413310044
 51
11.8586689956
  0
ARC
  5
95
  8
0
  6
CONTINUOUS
 62
     7
 10
-64.4215338056
 20
-196.8972647514
 30
0.0
 40
1.691165340272207
 50
338.0799745136
 51
21.9200254864
  0
LINE
  5
96
  8
0
  6
CONTINUOUS
 62
     7
 10
-642.8526429661
 20
-197.5285971489
 30
0.0
 11
-62.8526298531
 21
-197.5285971489
 31
0.0
  0
LINE
  5
97
  8
0
  6
CONTINUOUS
 62
     7
 10
-642.8526429661
 20
-197.5277030792
 30
0.0
 11
-642.8526429661
 21
-197.5285971489
 31
0.0
  0
LINE
  5
98
  8
0
  6
CONTINUOUS
 62
     7
 10
-642.8526429661
 20
-196.2659323539
 30
0.0
 11
-642.8526429661
 21
-197.5277030792
 31
0.0
  0
ARC
  5
99
  8
0
  6
CONTINUOUS
 62
     7
 10
-633.7067667158
 20
-194.3452471819
 30
0.0
 40
9.345377676547153
 50
168.1399139196
 51
191.8600860804
  0
POLYLINE
  5
9A
  8
0
  6
CONTINUOUS
 62
     7
 66
     1
 10
0.0
 20
0.0
 30
0.0
 70
   128
  0
VERTEX
  5
175
  8
0
  6
CONTINUOUS
 62
     7
 10
-649.8526422509
 20
-196.0285866584
 30
0.0
  0
VERTEX
  5
176
  8
0
  6
CONTINUOUS
 62
     7
 10
-646.4320956
 20
-197.1493923988
 30
0.0
  0
VERTEX
  5
177
  8
0
  6
CONTINUOUS
 62
     7
 10
-642.8526429661
 20
-197.5285971489
 30
0.0
  0
SEQEND
  5
274
  8
0
  6
CONTINUOUS
 62
     7
  0
LINE
  5
9B
  8
0
  6
CONTINUOUS
 62
     7
 10
-649.8526422509
 20
-158.0285990562
 30
0.0
 11
-649.8526422509
 21
-196.0285866584
 31
0.0
  0
POLYLINE
  5
9C
  8
0
  6
CONTINUOUS
 62
     7
 66
     1
 10
0.0
 20
0.0
 30
0.0
 70
   128
  0
VERTEX
  5
178
  8
0
  6
CONTINUOUS
 62
     7
 10
-649.8526422509
 20
-158.0285990562
 30
0.0
  0
VERTEX
  5
179
  8
0
  6
CONTINUOUS
 62
     7
 10
-646.4320956
 20
-156.9077933159
 30
0.0
  0
VERTEX
  5
17A
  8
0
  6
CONTINUOUS
 62
     7
 10
-642.8526429661
 20
-156.5285885658
 30
0.0
  0
SEQEND
  5
275
  8
0
  6
CONTINUOUS
 62
     7
  0
POLYLINE
  5
9D
  8
0
  6
CONTINUOUS
 62
     7
 66
     1
 10
0.0
 20
0.0
 30
0.0
 70
   128
  0
VERTEX
  5
17B
  8
0
  6
CONTINUOUS
 62
     7
 10
-55.8526305684
 20
-158.0285990562
 30
0.0
  0
VERTEX
  5
17C
  8
0
  6
CONTINUOUS
 62
     7
 10
-59.2731623181
 20
-156.9077933159
 30
0.0
  0
VERTEX
  5
17D
  8
0
  6
CONTINUOUS
 62
     7
 10
-62.8526298531
 20
-156.5285885658
 30
0.0
  0
SEQEND
  5
276
  8
0
  6
CONTINUOUS
 62
     7
  0
LINE
  5
9E
  8
0
  6
CONTINUOUS
 62
     7
 10
-55.8526305684
 20
-158.0285990562
 30
0.0
 11
-55.8526305684
 21
-196.0285866584
 31
0.0
  0
POLYLINE
  5
9F
  8
0
  6
CONTINUOUS
 62
     7
 66
     1
 10
0.0
 20
0.0
 30
0.0
 70
   128
  0
VERTEX
  5
17E
  8
0
  6
CONTINUOUS
 62
     7
 10
-62.8526298531
 20
-197.5285971489
 30
0.0
  0
VERTEX
  5
17F
  8
0
  6
CONTINUOUS
 62
     7
 10
-59.2731921204
 20
-197.1493923988
 30
0.0
  0
VERTEX
  5
180
  8
0
  6
CONTINUOUS
 62
     7
 10
-55.8526305684
 20
-196.0285866584
 30
0.0
  0
SEQEND
  5
277
  8
0
  6
CONTINUOUS
 62
     7
  0
LINE
  5
A0
  8
0
  6
CONTINUOUS
 62
     7
 10
-52.8526393898
 20
-158.0285990562
 30
0.0
 11
-52.8526393898
 21
-196.0285866584
 31
0.0
  0
LINE
  5
A1
  8
0
  6
CONTINUOUS
 62
     7
 10
-52.8526393898
 20
-196.0285866584
 30
0.0
 11
-55.8528689869
 21
-196.0285866584
 31
0.0
  0
LINE
  5
A2
  8
0
  6
CONTINUOUS
 62
     7
 10
-52.8526393898
 20
-158.0285990562
 30
0.0
 11
-55.8526305684
 21
-158.0285990562
 31
0.0
  0
LINE
  5
A3
  8
0
  6
CONTINUOUS
 62
     7
 10
-652.8526334294
 20
-196.0285866584
 30
0.0
 11
-649.8526422509
 21
-196.0285866584
 31
0.0
  0
LINE
  5
A4
  8
0
  6
CONTINUOUS
 62
     7
 10
-652.8526334294
 20
-158.0285990562
 30
0.0
 11
-649.8526422509
 21
-158.0285990562
 31
0.0
  0
LINE
  5
A5
  8
0
  6
CONTINUOUS
 62
     7
 10
-652.8526334294
 20
-158.0285990562
 30
0.0
 11
-652.8526334294
 21
-196.0285866584
 31
0.0
  0
LINE
  5
A6
  8
0
  6
CONTINUOUS
 62
     7
 10
-817.4168555268
 20
-234.5285827245
 30
0.0
 11
111.7115231029
 21
-234.5285827245
 31
0.0
  0
LINE
  5
A7
  8
0
  6
CONTINUOUS
 62
     7
 10
-652.8526334294
 20
-194.528576168
 30
0.0
 11
-901.852646304
 21
-194.528576168
 31
0.0
  0
LINE
  5
A8
  8
0
  6
CONTINUOUS
 62
     7
 10
-652.8526334294
 20
-159.5285797443
 30
0.0
 11
-901.852646304
 21
-159.5285797443
 31
0.0
  0
LINE
  5
A9
  8
0
  6
CONTINUOUS
 62
     7
 10
-52.8526393898
 20
-159.5285797443
 30
0.0
 11
196.1473436824
 21
-159.5285797443
 31
0.0
  0
LINE
  5
AA
  8
0
  6
CONTINUOUS
 62
     7
 10
-52.8526393898
 20
-194.528576168
 30
0.0
 11
196.1473436824
 21
-194.528576168
 31
0.0
  0
POLYLINE
  5
AB
  8
0
  6
CONTINUOUS
 62
     7
 66
     1
 10
0.0
 20
0.0
 30
0.0
 70
   128
  0
VERTEX
  5
181
  8
0
  6
CONTINUOUS
 62
     7
 10
247.1473427288
 20
-177.0285928573
 30
0.0
  0
VERTEX
  5
182
  8
0
  6
CONTINUOUS
 62
     7
 10
246.8919964305
 20
-175.2555334892
 30
0.0
  0
VERTEX
  5
183
  8
0
  6
CONTINUOUS
 62
     7
 10
246.2021322719
 20
-173.5906863537
 30
0.0
  0
VERTEX
  5
184
  8
0
  6
CONTINUOUS
 62
     7
 10
245.2023835651
 20
-172.114875349
 30
0.0
  0
VERTEX
  5
185
  8
0
  6
CONTINUOUS
 62
     7
 10
243.989071416
 20
-170.8167159881
 30
0.0
  0
VERTEX
  5
186
  8
0
  6
CONTINUOUS
 62
     7
 10
241.2095280162
 20
-168.6473751392
 30
0.0
  0
VERTEX
  5
187
  8
0
  6
CONTINUOUS
 62
     7
 10
238.1588430873
 20
-166.899915966
 30
0.0
  0
VERTEX
  5
188
  8
0
  6
CONTINUOUS
 62
     7
 10
231.6683145038
 20
-164.2540955867
 30
0.0
  0
VERTEX
  5
189
  8
0
  6
CONTINUOUS
 62
     7
 10
224.9195189945
 20
-162.387516531
 30
0.0
  0
VERTEX
  5
18A
  8
0
  6
CONTINUOUS
 62
     7
 10
215.7450528614
 20
-160.7278848018
 30
0.0
  0
VERTEX
  5
18B
  8
0
  6
CONTINUOUS
 62
     7
 10
206.4640136234
 20
-159.8219538059
 30
0.0
  0
VERTEX
  5
18C
  8
0
  6
CONTINUOUS
 62
     7
 10
197.1473904125
 20
-159.5285797443
 30
0.0
  0
SEQEND
  5
278
  8
0
  6
CONTINUOUS
 62
     7
  0
LINE
  5
AC
  8
0
  6
CONTINUOUS
 62
     7
 10
197.1473904125
 20
-159.5285797443
 30
0.0
 11
196.1473436824
 21
-159.5285797443
 31
0.0
  0
POLYLINE
  5
AD
  8
0
  6
CONTINUOUS
 62
     7
 66
     1
 10
0.0
 20
0.0
 30
0.0
 70
   128
  0
VERTEX
  5
18D
  8
0
  6
CONTINUOUS
 62
     7
 10
-952.8526453503
 20
-177.0285928573
 30
0.0
  0
VERTEX
  5
18E
  8
0
  6
CONTINUOUS
 62
     7
 10
-952.5972394474
 20
-178.8016224231
 30
0.0
  0
VERTEX
  5
18F
  8
0
  6
CONTINUOUS
 62
     7
 10
-951.9074348935
 20
-180.466499361
 30
0.0
  0
VERTEX
  5
190
  8
0
  6
CONTINUOUS
 62
     7
 10
-950.907626582
 20
-181.9423103656
 30
0.0
  0
VERTEX
  5
191
  8
0
  6
CONTINUOUS
 62
     7
 10
-949.6943740376
 20
-183.2404399242
 30
0.0
  0
VERTEX
  5
192
  8
0
  6
CONTINUOUS
 62
     7
 10
-946.9148306378
 20
-185.4098105755
 30
0.0
  0
VERTEX
  5
193
  8
0
  6
CONTINUOUS
 62
     7
 10
-943.8641457089
 20
-187.1572697487
 30
0.0
  0
VERTEX
  5
194
  8
0
  6
CONTINUOUS
 62
     7
 10
-937.3735575207
 20
-189.8030901279
 30
0.0
  0
VERTEX
  5
195
  8
0
  6
CONTINUOUS
 62
     7
 10
-930.6247620114
 20
-191.6696691837
 30
0.0
  0
VERTEX
  5
196
  8
0
  6
CONTINUOUS
 62
     7
 10
-921.4502958783
 20
-193.3293009128
 30
0.0
  0
VERTEX
  5
197
  8
0
  6
CONTINUOUS
 62
     7
 10
-912.1693162449
 20
-194.2352319088
 30
0.0
  0
VERTEX
  5
198
  8
0
  6
CONTINUOUS
 62
     7
 10
-902.8526334294
 20
-194.528576168
 30
0.0
  0
SEQEND
  5
279
  8
0
  6
CONTINUOUS
 62
     7
  0
LINE
  5
AE
  8
0
  6
CONTINUOUS
 62
     7
 10
-902.8526334294
 20
-194.528576168
 30
0.0
 11
-901.852646304
 21
-194.528576168
 31
0.0
  0
POLYLINE
  5
AF
  8
0
  6
CONTINUOUS
 62
     7
 66
     1
 10
0.0
 20
0.0
 30
0.0
 70
   128
  0
VERTEX
  5
199
  8
0
  6
CONTINUOUS
 62
     7
 10
247.1473427288
 20
-177.0285928573
 30
0.0
  0
VERTEX
  5
19A
  8
0
  6
CONTINUOUS
 62
     7
 10
246.8919964305
 20
-178.8016224231
 30
0.0
  0
VERTEX
  5
19B
  8
0
  6
CONTINUOUS
 62
     7
 10
246.2021322719
 20
-180.466499361
 30
0.0
  0
VERTEX
  5
19C
  8
0
  6
CONTINUOUS
 62
     7
 10
245.2023835651
 20
-181.9423103656
 30
0.0
  0
VERTEX
  5
19D
  8
0
  6
CONTINUOUS
 62
     7
 10
243.989071416
 20
-183.2404399242
 30
0.0
  0
VERTEX
  5
19E
  8
0
  6
CONTINUOUS
 62
     7
 10
241.2095280162
 20
-185.4098105755
 30
0.0
  0
VERTEX
  5
19F
  8
0
  6
CONTINUOUS
 62
     7
 10
238.1588430873
 20
-187.1572697487
 30
0.0
  0
VERTEX
  5
1A0
  8
0
  6
CONTINUOUS
 62
     7
 10
231.6683145038
 20
-189.8030901279
 30
0.0
  0
VERTEX
  5
1A1
  8
0
  6
CONTINUOUS
 62
     7
 10
224.9195189945
 20
-191.6696691837
 30
0.0
  0
VERTEX
  5
1A2
  8
0
  6
CONTINUOUS
 62
     7
 10
215.7450528614
 20
-193.3293009128
 30
0.0
  0
VERTEX
  5
1A3
  8
0
  6
CONTINUOUS
 62
     7
 10
206.4640136234
 20
-194.2352319088
 30
0.0
  0
VERTEX
  5
1A4
  8
0
  6
CONTINUOUS
 62
     7
 10
197.1473904125
 20
-194.528576168
 30
0.0
  0
SEQEND
  5
27A
  8
0
  6
CONTINUOUS
 62
     7
  0
LINE
  5
B0
  8
0
  6
CONTINUOUS
 62
     7
 10
197.1473904125
 20
-194.528576168
 30
0.0
 11
196.1473436824
 21
-194.528576168
 31
0.0
  0
POLYLINE
  5
B1
  8
0
  6
CONTINUOUS
 62
     7
 66
     1
 10
0.0
 20
0.0
 30
0.0
 70
   128
  0
VERTEX
  5
1A5
  8
0
  6
CONTINUOUS
 62
     7
 10
-952.8526453503
 20
-177.0285928573
 30
0.0
  0
VERTEX
  5
1A6
  8
0
  6
CONTINUOUS
 62
     7
 10
-952.5972394474
 20
-175.2555334892
 30
0.0
  0
VERTEX
  5
1A7
  8
0
  6
CONTINUOUS
 62
     7
 10
-951.9074348935
 20
-173.5906863537
 30
0.0
  0
VERTEX
  5
1A8
  8
0
  6
CONTINUOUS
 62
     7
 10
-950.907626582
 20
-172.114875349
 30
0.0
  0
VERTEX
  5
1A9
  8
0
  6
CONTINUOUS
 62
     7
 10
-949.6943740376
 20
-170.8167159881
 30
0.0
  0
VERTEX
  5
1AA
  8
0
  6
CONTINUOUS
 62
     7
 10
-946.9148306378
 20
-168.6473751392
 30
0.0
  0
VERTEX
  5
1AB
  8
0
  6
CONTINUOUS
 62
     7
 10
-943.8641457089
 20
-166.899915966
 30
0.0
  0
VERTEX
  5
1AC
  8
0
  6
CONTINUOUS
 62
     7
 10
-937.3735575207
 20
-164.2540955867
 30
0.0
  0
VERTEX
  5
1AD
  8
0
  6
CONTINUOUS
 62
     7
 10
-930.6247620114
 20
-162.387516531
 30
0.0
  0
VERTEX
  5
1AE
  8
0
  6
CONTINUOUS
 62
     7
 10
-921.4502958783
 20
-160.7278848018
 30
0.0
  0
VERTEX
  5
1AF
  8
0
  6
CONTINUOUS
 62
     7
 10
-912.1693162449
 20
-159.8219538059
 30
0.0
  0
VERTEX
  5
1B0
  8
0
  6
CONTINUOUS
 62
     7
 10
-902.8526334294
 20
-159.5285797443
 30
0.0
  0
SEQEND
  5
27B
  8
0
  6
CONTINUOUS
 62
     7
  0
LINE
  5
B2
  8
0
  6
CONTINUOUS
 62
     7
 10
-902.8526334294
 20
-159.5285797443
 30
0.0
 11
-901.852646304
 21
-159.5285797443
 31
0.0
  0
LINE
  5
B3
  8
0
  6
CONTINUOUS
 62
     7
 10
185.4639263622
 20
-879.5285785522
 30
0.0
 11
208.0819817058
 21
-879.5285785522
 31
0.0
  0
LINE
  5
B4
  8
0
  6
CONTINUOUS
 62
     7
 10
191.5956349842
 20
-879.5285785522
 30
0.0
 11
193.0031390659
 21
-879.5285785522
 31
0.0
  0
LINE
  5
B5
  8
0
  6
CONTINUOUS
 62
     7
 10
-891.1691693791
 20
-879.5285785522
 30
0.0
 11
-913.7872843274
 21
-879.5285785522
 31
0.0
  0
LINE
  5
B6
  8
0
  6
CONTINUOUS
 62
     8
 10
-817.3053054341
 20
-232.9444104757
 30
0.0
 11
111.5999432079
 21
-232.9444104757
 31
0.0
  0
LINE
  5
B7
  8
0
  6
CONTINUOUS
 62
     7
 10
-642.8526429661
 20
344.4252715723
 30
0.0
 11
-62.8526298531
 21
344.4252715723
 31
0.0
  0
POLYLINE
  5
B8
  8
0
  6
CONTINUOUS
 62
     7
 66
     1
 10
0.0
 20
0.0
 30
0.0
 70
   128
  0
VERTEX
  5
1B1
  8
0
  6
CONTINUOUS
 62
     7
 10
-649.8526422509
 20
345.9252820627
 30
0.0
  0
VERTEX
  5
1B2
  8
0
  6
CONTINUOUS
 62
     7
 10
-646.4320956
 20
344.8044763224
 30
0.0
  0
VERTEX
  5
1B3
  8
0
  6
CONTINUOUS
 62
     7
 10
-642.8526429661
 20
344.4252715723
 30
0.0
  0
SEQEND
  5
27C
  8
0
  6
CONTINUOUS
 62
     7
  0
POLYLINE
  5
B9
  8
0
  6
CONTINUOUS
 62
     7
 66
     1
 10
0.0
 20
0.0
 30
0.0
 70
   128
  0
VERTEX
  5
1B4
  8
0
  6
CONTINUOUS
 62
     7
 10
-62.8526298531
 20
344.4252715723
 30
0.0
  0
VERTEX
  5
1B5
  8
0
  6
CONTINUOUS
 62
     7
 10
-59.2731921204
 20
344.8044763224
 30
0.0
  0
VERTEX
  5
1B6
  8
0
  6
CONTINUOUS
 62
     7
 10
-55.8526305684
 20
345.9252820627
 30
0.0
  0
SEQEND
  5
27D
  8
0
  6
CONTINUOUS
 62
     7
  0
LINE
  5
BA
  8
0
  6
CONTINUOUS
 62
     7
 10
-55.8526305684
 20
345.9252820627
 30
0.0
 11
-52.8526393898
 21
345.9252820627
 31
0.0
  0
LINE
  5
BB
  8
0
  6
CONTINUOUS
 62
     7
 10
-652.8526334294
 20
345.9252820627
 30
0.0
 11
-649.8526422509
 21
345.9252820627
 31
0.0
  0
LINE
  5
BC
  8
0
  6
CONTINUOUS
 62
     7
 10
-912.8526238926
 20
347.4252925531
 30
0.0
 11
-652.8526334294
 21
347.4252925531
 31
0.0
  0
LINE
  5
BD
  8
0
  6
CONTINUOUS
 62
     7
 10
-52.8526393898
 20
347.4252925531
 30
0.0
 11
207.1473808757
 21
347.4252925531
 31
0.0
  0
LINE
  5
BE
  8
0
  6
CONTINUOUS
 62
     7
 10
-352.8526401349
 20
847.4252925531
 30
0.0
 11
-912.8526238926
 21
847.4252925531
 31
0.0
  0
LINE
  5
BF
  8
0
  6
CONTINUOUS
 62
     7
 10
207.1473808757
 20
847.4252925531
 30
0.0
 11
-352.8526401349
 21
847.4252925531
 31
0.0
  0
LINE
  5
C0
  8
0
  6
CONTINUOUS
 62
     7
 10
247.1473427288
 20
387.4252544062
 30
0.0
 11
247.1473427288
 21
807.4253307001
 31
0.0
  0
LINE
  5
C1
  8
0
  6
CONTINUOUS
 62
     7
 10
-952.8526453503
 20
807.4253307001
 30
0.0
 11
-952.8526453503
 21
387.4252544062
 31
0.0
  0
LINE
  5
C2
  8
0
  6
CONTINUOUS
 62
     7
 10
-649.8526422509
 20
715.4253230707
 30
0.0
 11
-649.8526422509
 21
397.4253640787
 31
0.0
  0
LINE
  5
C3
  8
0
  6
CONTINUOUS
 62
     7
 10
-610.8526377209
 20
754.425357403
 30
0.0
 11
-94.8526350983
 21
754.425357403
 31
0.0
  0
LINE
  5
C4
  8
0
  6
CONTINUOUS
 62
     7
 10
-55.8526305684
 20
715.4253230707
 30
0.0
 11
-55.8526305684
 21
397.4253640787
 31
0.0
  0
ARC
  5
C5
  8
0
  6
CONTINUOUS
 62
     7
 10
-605.3281972373
 20
355.3189144747
 30
0.0
 40
37.99730823272775
 50
170.9514275003
 51
189.0485724997
  0
ARC
  5
C6
  8
0
  6
CONTINUOUS
 62
     7
 10
-100.3774262724
 20
355.3189144747
 30
0.0
 40
37.9976545590519
 50
350.9515106652
 51
9.0484893348
  0
LINE
  5
C7
  8
0
  6
CONTINUOUS
 62
     7
 10
-649.8526422509
 20
397.4253640787
 30
0.0
 11
-649.8526422509
 21
345.9252820627
 31
0.0
  0
LINE
  5
C8
  8
0
  6
CONTINUOUS
 62
     7
 10
-55.8526305684
 20
397.4253640787
 30
0.0
 11
-55.8526305684
 21
345.9252820627
 31
0.0
  0
ARC
  5
C9
  8
0
  6
CONTINUOUS
 62
     7
 10
-610.8523378206
 20
715.4252913924
 30
0.0
 40
39.00006601171362
 50
90.0004405896
 51
179.9999534608
  0
ARC
  5
CA
  8
0
  6
CONTINUOUS
 62
     7
 10
-94.8528078364
 20
715.4249417149
 30
0.0
 40
39.00017726992331
 50
0.0005602559
 51
89.9997462277
  0
ARC
  5
CB
  8
0
  6
CONTINUOUS
 62
     7
 10
-94.8524860108
 20
715.4251700168
 30
0.0
 40
42.00008915799339
 50
67.652597841
 51
90.0002033826
  0
ARC
  5
CC
  8
0
  6
CONTINUOUS
 62
     7
 10
-94.8534638621
 20
715.4240541696
 30
0.0
 40
42.00149300285491
 50
44.3063967612
 51
67.6519428627
  0
ARC
  5
CD
  8
0
  6
CONTINUOUS
 62
     7
 10
-94.8535210071
 20
715.4247761389
 30
0.0
 40
42.00102960824872
 50
21.3487436492
 51
44.3056375188
  0
ARC
  5
CE
  8
0
  6
CONTINUOUS
 62
     7
 10
-94.8525903452
 20
715.4253580793
 30
0.0
 40
41.99995095536278
 50
359.9999522418
 51
21.3484664369
  0
LINE
  5
CF
  8
0
  6
CONTINUOUS
 62
     7
 10
-52.8526393898
 20
715.4253230707
 30
0.0
 11
-52.8526393898
 21
397.4253640787
 31
0.0
  0
LINE
  5
D0
  8
0
  6
CONTINUOUS
 62
     7
 10
-652.8526334294
 20
715.4253230707
 30
0.0
 11
-652.8526334294
 21
397.4253640787
 31
0.0
  0
ARC
  5
D1
  8
0
  6
CONTINUOUS
 62
     7
 10
-610.8516724155
 20
715.425184755
 30
0.0
 40
42.00096101411024
 50
157.6526189219
 51
179.9998113161
  0
ARC
  5
D2
  8
0
  6
CONTINUOUS
 62
     7
 10
-610.8529006578
 20
715.4253363602
 30
0.0
 40
41.99976737595545
 50
134.3057459517
 51
157.6521731246
  0
ARC
  5
D3
  8
0
  6
CONTINUOUS
 62
     7
 10
-610.8541603479
 20
715.4276086374
 30
0.0
 40
41.9972614112345
 50
111.3476997425
 51
134.3066814255
  0
ARC
  5
D4
  8
0
  6
CONTINUOUS
 62
     7
 10
-610.853146711
 20
715.4279019542
 30
0.0
 40
41.99735722346764
 50
89.9993055996
 51
111.3491334071
  0
LINE
  5
D5
  8
0
  6
CONTINUOUS
 62
     7
 10
-610.8526377209
 20
757.4252591745
 30
0.0
 11
-94.852605296
 21
757.4252591745
 31
0.0
  0
LINE
  5
D6
  8
0
  6
CONTINUOUS
 62
     7
 10
-52.8526393898
 20
397.4253640787
 30
0.0
 11
-52.8526393898
 21
345.9252820627
 31
0.0
  0
LINE
  5
D7
  8
0
  6
CONTINUOUS
 62
     7
 10
-652.8526334294
 20
397.4253640787
 30
0.0
 11
-652.8526334294
 21
345.9252820627
 31
0.0
  0
ARC
  5
D8
  8
0
  6
CONTINUOUS
 62
     7
 10
-912.8640413745
 20
807.4366885943
 30
0.0
 40
39.98860558877848
 50
89.9836410016
 51
180.016273621
  0
ARC
  5
D9
  8
0
  6
CONTINUOUS
 62
     7
 10
207.1587762691
 20
807.4367260935
 30
0.0
 40
39.98856808328392
 50
359.9836726348
 51
90.0163273652
  0
ARC
  5
DA
  8
0
  6
CONTINUOUS
 62
     7
 10
207.1587451355
 20
387.4138901464
 30
0.0
 40
39.98859920806314
 50
269.9837172558
 51
0.0162827442
  0
ARC
  5
DB
  8
0
  6
CONTINUOUS
 62
     7
 10
-912.8640102407
 20
387.4139276458
 30
0.0
 40
39.98863671376479
 50
179.9837710003
 51
270.016314377
  0
POLYLINE
  5
DC
  8
0
  6
CONTINUOUS
 62
     7
 66
     1
 10
0.0
 20
0.0
 30
0.0
 70
   128
  0
VERTEX
  5
1B7
  8
0
  6
CONTINUOUS
 62
     7
 10
1048.4517189536
 20
-158.0285990562
 30
0.0
  0
VERTEX
  5
1B8
  8
0
  6
CONTINUOUS
 62
     7
 10
1046.3858219657
 20
-157.102670702
 30
0.0
  0
VERTEX
  5
1B9
  8
0
  6
CONTINUOUS
 62
     7
 10
1044.0277430091
 20
-156.6538775291
 30
0.0
  0
SEQEND
  5
27E
  8
0
  6
CONTINUOUS
 62
     7
  0
ARC
  5
DD
  8
0
  6
CONTINUOUS
 62
     7
 10
1092.3398744344
 20
-54.1455987588
 30
0.0
 40
140.3810184355983
 50
269.9437779789
 51
273.6700951359
  0
LINE
  5
DE
  8
0
  6
CONTINUOUS
 62
     7
 10
1101.5483709846
 20
-194.2259335842
 30
0.0
 11
1101.9542190109
 21
-194.2025983658
 31
0.0
  0
LINE
  5
DF
  8
0
  6
CONTINUOUS
 62
     7
 10
1101.9542190109
 20
-159.8545873489
 30
0.0
 11
1101.5483709846
 21
-159.8312521305
 31
0.0
  0
ARC
  5
E0
  8
0
  6
CONTINUOUS
 62
     7
 10
1092.3416417026
 20
-299.8555675901
 30
0.0
 40
140.3250008427773
 50
86.3291608307
 51
90.0569660545
  0
POLYLINE
  5
E1
  8
0
  6
CONTINUOUS
 62
     7
 66
     1
 10
0.0
 20
0.0
 30
0.0
 70
   128
  0
VERTEX
  5
1BA
  8
0
  6
CONTINUOUS
 62
     7
 10
786.1247631584
 20
-194.5297086563
 30
0.0
  0
VERTEX
  5
1BB
  8
0
  6
CONTINUOUS
 62
     7
 10
782.4129435096
 20
-209.1011071529
 30
0.0
  0
VERTEX
  5
1BC
  8
0
  6
CONTINUOUS
 62
     7
 10
770.0415226493
 20
-258.9489186134
 30
0.0
  0
VERTEX
  5
1BD
  8
0
  6
CONTINUOUS
 62
     7
 10
757.9781385932
 20
-308.8685238685
 30
0.0
  0
VERTEX
  5
1BE
  8
0
  6
CONTINUOUS
 62
     7
 10
746.2229105506
 20
-358.8579783168
 30
0.0
  0
VERTEX
  5
1BF
  8
0
  6
CONTINUOUS
 62
     7
 10
734.7763153587
 20
-408.9153038289
 30
0.0
  0
VERTEX
  5
1C0
  8
0
  6
CONTINUOUS
 62
     7
 10
723.6388298545
 20
-459.0385129627
 30
0.0
  0
VERTEX
  5
1C1
  8
0
  6
CONTINUOUS
 62
     7
 10
712.810811666
 20
-509.2256294515
 30
0.0
  0
VERTEX
  5
1C2
  8
0
  6
CONTINUOUS
 62
     7
 10
702.2926184211
 20
-559.4746733036
 30
0.0
  0
VERTEX
  5
1C3
  8
0
  6
CONTINUOUS
 62
     7
 10
692.0846077476
 20
-609.7836459007
 30
0.0
  0
VERTEX
  5
1C4
  8
0
  6
CONTINUOUS
 62
     7
 10
682.1868988548
 20
-660.1505542125
 30
0.0
  0
VERTEX
  5
1C5
  8
0
  6
CONTINUOUS
 62
     7
 10
672.6000877891
 20
-710.5734312858
 30
0.0
  0
VERTEX
  5
1C6
  8
0
  6
CONTINUOUS
 62
     7
 10
663.3242937599
 20
-761.0502505626
 30
0.0
  0
VERTEX
  5
1C7
  8
0
  6
CONTINUOUS
 62
     7
 10
654.3599936042
 20
-811.5790450897
 30
0.0
  0
VERTEX
  5
1C8
  8
0
  6
CONTINUOUS
 62
     7
 10
645.7073065315
 20
-862.1578181114
 30
0.0
  0
VERTEX
  5
1C9
  8
0
  6
CONTINUOUS
 62
     7
 10
643.4207531486
 20
-876.036729845
 30
0.0
  0
SEQEND
  5
27F
  8
0
  6
CONTINUOUS
 62
     7
  0
POLYLINE
  5
E2
  8
0
  6
CONTINUOUS
 62
     7
 66
     1
 10
0.0
 20
0.0
 30
0.0
 70
   128
  0
VERTEX
  5
1CA
  8
0
  6
CONTINUOUS
 62
     7
 10
672.3002764259
 20
-877.2776389446
 30
0.0
  0
VERTEX
  5
1CB
  8
0
  6
CONTINUOUS
 62
     7
 10
674.6825548683
 20
-868.1606614914
 30
0.0
  0
VERTEX
  5
1CC
  8
0
  6
CONTINUOUS
 62
     7
 10
687.3614164863
 20
-818.3866405811
 30
0.0
  0
VERTEX
  5
1CD
  8
0
  6
CONTINUOUS
 62
     7
 10
699.7327181373
 20
-768.5388589229
 30
0.0
  0
VERTEX
  5
1CE
  8
0
  6
CONTINUOUS
 62
     7
 10
711.7962214027
 20
-718.6192387666
 30
0.0
  0
VERTEX
  5
1CF
  8
0
  6
CONTINUOUS
 62
     7
 10
723.5514494453
 20
-668.629791769
 30
0.0
  0
VERTEX
  5
1D0
  8
0
  6
CONTINUOUS
 62
     7
 10
734.9980446372
 20
-618.5724699821
 30
0.0
  0
VERTEX
  5
1D1
  8
0
  6
CONTINUOUS
 62
     7
 10
739.2678829704
 20
-599.3560070123
 30
0.0
  0
SEQEND
  5
280
  8
0
  6
CONTINUOUS
 62
     7
  0
POLYLINE
  5
E3
  8
0
  6
CONTINUOUS
 62
     7
 66
     1
 10
0.0
 20
0.0
 30
0.0
 70
   128
  0
VERTEX
  5
1D2
  8
0
  6
CONTINUOUS
 62
     7
 10
748.0247589622
 20
-559.692371818
 30
0.0
  0
VERTEX
  5
1D3
  8
0
  6
CONTINUOUS
 62
     7
 10
756.9634291206
 20
-518.2621406343
 30
0.0
  0
VERTEX
  5
1D4
  8
0
  6
CONTINUOUS
 62
     7
 10
767.4817415748
 20
-468.013101206
 30
0.0
  0
VERTEX
  5
1D5
  8
0
  6
CONTINUOUS
 62
     7
 10
777.6897522483
 20
-417.7041279103
 30
0.0
  0
VERTEX
  5
1D6
  8
0
  6
CONTINUOUS
 62
     7
 10
787.5874611411
 20
-367.3372084226
 30
0.0
  0
VERTEX
  5
1D7
  8
0
  6
CONTINUOUS
 62
     7
 10
797.1742722068
 20
-316.9143462505
 30
0.0
  0
VERTEX
  5
1D8
  8
0
  6
CONTINUOUS
 62
     7
 10
806.4500662361
 20
-266.4375120725
 30
0.0
  0
VERTEX
  5
1D9
  8
0
  6
CONTINUOUS
 62
     7
 10
812.1109577689
 20
-234.5285827245
 30
0.0
  0
SEQEND
  5
281
  8
0
  6
CONTINUOUS
 62
     7
  0
ARC
  5
E4
  8
0
  6
CONTINUOUS
 62
     7
 10
646.3482229902
 20
-876.5286107804
 30
0.0
 40
2.999967908708243
 50
170.4308981126
 51
270.017310313
  0
ARC
  5
E5
  8
0
  6
CONTINUOUS
 62
     7
 10
669.4198006596
 20
-876.5285019145
 30
0.0
 40
3.000076637782683
 50
270.0004144828
 51
345.4122999021
  0
LINE
  5
E6
  8
0
  6
CONTINUOUS
 62
     7
 10
1036.229190496
 20
-559.61591396
 30
0.0
 11
748.04526296
 21
-559.61591396
 31
0.0
  0
LINE
  5
E7
  8
0
  6
CONTINUOUS
 62
     7
 10
739.2889830146
 20
-599.4412565555
 30
0.0
 11
1044.9854704414
 21
-599.4412565555
 31
0.0
  0
POLYLINE
  5
E8
  8
0
  6
CONTINUOUS
 62
     7
 66
     1
 10
0.0
 20
0.0
 30
0.0
 70
   128
  0
VERTEX
  5
1DA
  8
0
  6
CONTINUOUS
 62
     7
 10
972.1633764778
 20
-234.5285827245
 30
0.0
  0
VERTEX
  5
1DB
  8
0
  6
CONTINUOUS
 62
     7
 10
977.8680178199
 20
-266.6785085525
 30
0.0
  0
VERTEX
  5
1DC
  8
0
  6
CONTINUOUS
 62
     7
 10
987.151560453
 20
-317.1890193548
 30
0.0
  0
VERTEX
  5
1DD
  8
0
  6
CONTINUOUS
 62
     7
 10
996.7451664481
 20
-367.6379287567
 30
0.0
  0
VERTEX
  5
1DE
  8
0
  6
CONTINUOUS
 62
     7
 10
1006.6484781776
 20
-418.0232921567
 30
0.0
  0
VERTEX
  5
1DF
  8
0
  6
CONTINUOUS
 62
     7
 10
1016.8607803855
 20
-468.3431327062
 30
0.0
  0
VERTEX
  5
1E0
  8
0
  6
CONTINUOUS
 62
     7
 10
1027.3818346534
 20
-518.5954982366
 30
0.0
  0
VERTEX
  5
1E1
  8
0
  6
CONTINUOUS
 62
     7
 10
1036.2502905403
 20
-559.6922377076
 30
0.0
  0
SEQEND
  5
282
  8
0
  6
CONTINUOUS
 62
     7
  0
POLYLINE
  5
E9
  8
0
  6
CONTINUOUS
 62
     7
 66
     1
 10
0.0
 20
0.0
 30
0.0
 70
   128
  0
VERTEX
  5
1E2
  8
0
  6
CONTINUOUS
 62
     7
 10
1045.0068089042
 20
-599.35597721
 30
0.0
  0
VERTEX
  5
1E3
  8
0
  6
CONTINUOUS
 62
     7
 10
1049.3480536018
 20
-618.8899690237
 30
0.0
  0
VERTEX
  5
1E4
  8
0
  6
CONTINUOUS
 62
     7
 10
1060.7921453986
 20
-668.9281577196
 30
0.0
  0
VERTEX
  5
1E5
  8
0
  6
CONTINUOUS
 62
     7
 10
1072.5429626975
 20
-718.8910657491
 30
0.0
  0
VERTEX
  5
1E6
  8
0
  6
CONTINUOUS
 62
     7
 10
1084.599909452
 20
-768.7767112579
 30
0.0
  0
VERTEX
  5
1E7
  8
0
  6
CONTINUOUS
 62
     7
 10
1096.9625088249
 20
-818.5832166996
 30
0.0
  0
VERTEX
  5
1E8
  8
0
  6
CONTINUOUS
 62
     7
 10
1109.630105165
 20
-868.3086002197
 30
0.0
  0
VERTEX
  5
1E9
  8
0
  6
CONTINUOUS
 62
     7
 10
1111.9738194023
 20
-877.2776687469
 30
0.0
  0
SEQEND
  5
283
  8
0
  6
CONTINUOUS
 62
     7
  0
POLYLINE
  5
EA
  8
0
  6
CONTINUOUS
 62
     7
 66
     1
 10
0.0
 20
0.0
 30
0.0
 70
   128
  0
VERTEX
  5
1EA
  8
0
  6
CONTINUOUS
 62
     7
 10
1140.8535810981
 20
-876.0371768799
 30
0.0
  0
VERTEX
  5
1EB
  8
0
  6
CONTINUOUS
 62
     7
 10
1138.5419341598
 20
-862.0071375694
 30
0.0
  0
VERTEX
  5
1EC
  8
0
  6
CONTINUOUS
 62
     7
 10
1129.8797103439
 20
-811.3793695297
 30
0.0
  0
VERTEX
  5
1ED
  8
0
  6
CONTINUOUS
 62
     7
 10
1120.9065887008
 20
-760.8092689838
 30
0.0
  0
VERTEX
  5
1EE
  8
0
  6
CONTINUOUS
 62
     7
 10
1111.6230460677
 20
-710.2987581815
 30
0.0
  0
VERTEX
  5
1EF
  8
0
  6
CONTINUOUS
 62
     7
 10
1102.0293804679
 20
-659.8498338785
 30
0.0
  0
VERTEX
  5
1F0
  8
0
  6
CONTINUOUS
 62
     7
 10
1092.1261879478
 20
-609.4644779291
 30
0.0
  0
VERTEX
  5
1F1
  8
0
  6
CONTINUOUS
 62
     7
 10
1081.9137665305
 20
-559.1446423855
 30
0.0
  0
VERTEX
  5
1F2
  8
0
  6
CONTINUOUS
 62
     7
 10
1071.3927122627
 20
-508.8922755744
 30
0.0
  0
VERTEX
  5
1F3
  8
0
  6
CONTINUOUS
 62
     7
 10
1060.5635019813
 20
-458.7093435179
 30
0.0
  0
VERTEX
  5
1F4
  8
0
  6
CONTINUOUS
 62
     7
 10
1049.4266125236
 20
-408.5978047874
 30
0.0
  0
VERTEX
  5
1F5
  8
0
  6
CONTINUOUS
 62
     7
 10
1037.9824015174
 20
-358.5596123662
 30
0.0
  0
VERTEX
  5
1F6
  8
0
  6
CONTINUOUS
 62
     7
 10
1026.2315842185
 20
-308.5967117872
 30
0.0
  0
VERTEX
  5
1F7
  8
0
  6
CONTINUOUS
 62
     7
 10
1014.1746374641
 20
-258.7110513773
 30
0.0
  0
VERTEX
  5
1F8
  8
0
  6
CONTINUOUS
 62
     7
 10
1001.8120380912
 20
-208.9045608368
 30
0.0
  0
VERTEX
  5
1F9
  8
0
  6
CONTINUOUS
 62
     7
 10
998.1499287162
 20
-194.5290530052
 30
0.0
  0
SEQEND
  5
284
  8
0
  6
CONTINUOUS
 62
     7
  0
ARC
  5
EB
  8
0
  6
CONTINUOUS
 62
     7
 10
1137.9262328751
 20
-876.5286113889
 30
0.0
 40
2.999967300928374
 50
269.9826436668
 51
9.528135463
  0
ARC
  5
EC
  8
0
  6
CONTINUOUS
 62
     7
 10
1114.8546100951
 20
-876.5286574416
 30
0.0
 40
2.999921111666529
 50
194.5795223515
 51
270.0015394468
  0
ARC
  5
ED
  8
0
  6
CONTINUOUS
 62
     7
 10
769.4372401306
 20
-192.2952557184
 30
0.0
 40
2.433333333333315
 50
246.6077330386
 51
293.3922669614
  0
POLYLINE
  5
EE
  8
0
  6
CONTINUOUS
 62
     7
 66
     1
 10
0.0
 20
0.0
 30
0.0
 70
   128
  0
VERTEX
  5
1FA
  8
0
  6
CONTINUOUS
 62
     7
 10
692.1372982536
 20
-159.5285797443
 30
0.0
  0
VERTEX
  5
1FB
  8
0
  6
CONTINUOUS
 62
     7
 10
684.5611902747
 20
-159.7232783165
 30
0.0
  0
VERTEX
  5
1FC
  8
0
  6
CONTINUOUS
 62
     7
 10
680.8536621604
 20
-160.0141191807
 30
0.0
  0
SEQEND
  5
285
  8
0
  6
CONTINUOUS
 62
     7
  0
LINE
  5
EF
  8
0
  6
CONTINUOUS
 62
     7
 10
666.0340401206
 20
-162.0854699936
 30
0.0
 11
663.7180420432
 21
-162.5646615352
 31
0.0
  0
LINE
  5
F0
  8
0
  6
CONTINUOUS
 62
     7
 10
663.7180420432
 20
-191.4924943771
 30
0.0
 11
666.0340401206
 21
-191.9717157211
 31
0.0
  0
POLYLINE
  5
F1
  8
0
  6
CONTINUOUS
 62
     7
 66
     1
 10
0.0
 20
0.0
 30
0.0
 70
   128
  0
VERTEX
  5
1FD
  8
0
  6
CONTINUOUS
 62
     7
 10
680.8536621604
 20
-194.043066534
 30
0.0
  0
VERTEX
  5
1FE
  8
0
  6
CONTINUOUS
 62
     7
 10
684.5611902747
 20
-194.3339073982
 30
0.0
  0
VERTEX
  5
1FF
  8
0
  6
CONTINUOUS
 62
     7
 10
692.1372982536
 20
-194.528576168
 30
0.0
  0
SEQEND
  5
286
  8
0
  6
CONTINUOUS
 62
     7
  0
POLYLINE
  5
F2
  8
0
  6
CONTINUOUS
 62
     7
 66
     1
 10
0.0
 20
0.0
 30
0.0
 70
   128
  0
VERTEX
  5
200
  8
0
  6
CONTINUOUS
 62
     7
 10
692.1372982536
 20
-158.0285990562
 30
0.0
  0
VERTEX
  5
201
  8
0
  6
CONTINUOUS
 62
     7
 10
682.5655075584
 20
-158.3363080349
 30
0.0
  0
VERTEX
  5
202
  8
0
  6
CONTINUOUS
 62
     7
 10
673.1339069877
 20
-159.2773461666
 30
0.0
  0
VERTEX
  5
203
  8
0
  6
CONTINUOUS
 62
     7
 10
664.3175455604
 20
-160.8607733574
 30
0.0
  0
VERTEX
  5
204
  8
0
  6
CONTINUOUS
 62
     7
 10
656.49336305
 20
-163.0514526691
 30
0.0
  0
VERTEX
  5
205
  8
0
  6
CONTINUOUS
 62
     7
 10
651.9338461433
 20
-164.846863779
 30
0.0
  0
VERTEX
  5
206
  8
0
  6
CONTINUOUS
 62
     7
 10
648.111042646
 20
-166.8451690998
 30
0.0
  0
VERTEX
  5
207
  8
0
  6
CONTINUOUS
 62
     7
 10
645.0249525581
 20
-169.046428236
 30
0.0
  0
VERTEX
  5
208
  8
0
  6
CONTINUOUS
 62
     7
 10
643.1665989433
 20
-170.8780193653
 30
0.0
  0
VERTEX
  5
209
  8
0
  6
CONTINUOUS
 62
     7
 10
641.8071362052
 20
-172.8009248104
 30
0.0
  0
VERTEX
  5
20A
  8
0
  6
CONTINUOUS
 62
     7
 10
640.9297558341
 20
-174.8951340046
 30
0.0
  0
VERTEX
  5
20B
  8
0
  6
CONTINUOUS
 62
     7
 10
640.6372162376
 20
-177.0285928573
 30
0.0
  0
VERTEX
  5
20C
  8
0
  6
CONTINUOUS
 62
     7
 10
640.9296366248
 20
-179.1615152683
 30
0.0
  0
VERTEX
  5
20D
  8
0
  6
CONTINUOUS
 62
     7
 10
641.8071362052
 20
-181.256231102
 30
0.0
  0
VERTEX
  5
20E
  8
0
  6
CONTINUOUS
 62
     7
 10
643.1662413154
 20
-183.1787491169
 30
0.0
  0
VERTEX
  5
20F
  8
0
  6
CONTINUOUS
 62
     7
 10
645.0249525581
 20
-185.0107574787
 30
0.0
  0
VERTEX
  5
210
  8
0
  6
CONTINUOUS
 62
     7
 10
648.1105658088
 20
-187.2117781963
 30
0.0
  0
VERTEX
  5
211
  8
0
  6
CONTINUOUS
 62
     7
 10
651.9333693061
 20
-189.210083517
 30
0.0
  0
VERTEX
  5
212
  8
0
  6
CONTINUOUS
 62
     7
 10
656.49336305
 20
-191.0057032432
 30
0.0
  0
VERTEX
  5
213
  8
0
  6
CONTINUOUS
 62
     7
 10
662.6477810417
 20
-192.8020382251
 30
0.0
  0
VERTEX
  5
214
  8
0
  6
CONTINUOUS
 62
     7
 10
669.4989773307
 20
-194.2204201545
 30
0.0
  0
VERTEX
  5
215
  8
0
  6
CONTINUOUS
 62
     7
 10
676.819619802
 20
-195.2299142208
 30
0.0
  0
VERTEX
  5
216
  8
0
  6
CONTINUOUS
 62
     7
 10
684.4708296333
 20
-195.8315635051
 30
0.0
  0
VERTEX
  5
217
  8
0
  6
CONTINUOUS
 62
     7
 10
692.1372982536
 20
-196.0285866584
 30
0.0
  0
SEQEND
  5
287
  8
0
  6
CONTINUOUS
 62
     7
  0
LINE
  5
F3
  8
0
  6
CONTINUOUS
 62
     7
 10
1010.1372572456
 20
-158.0285990562
 30
0.0
 11
692.1372982536
 21
-158.0285990562
 31
0.0
  0
LINE
  5
F4
  8
0
  6
CONTINUOUS
 62
     7
 10
734.1372343574
 20
-194.528576168
 30
0.0
 11
734.1372343574
 21
-196.0285866584
 31
0.0
  0
LINE
  5
F5
  8
0
  6
CONTINUOUS
 62
     7
 10
708.1066938911
 20
-196.0285866584
 30
0.0
 11
692.1372982536
 21
-196.0285866584
 31
0.0
  0
LINE
  5
F6
  8
0
  6
CONTINUOUS
 62
     7
 10
722.1932980094
 20
-196.0285866584
 30
0.0
 11
708.1066938911
 21
-196.0285866584
 31
0.0
  0
LINE
  5
F7
  8
0
  6
CONTINUOUS
 62
     7
 10
731.2553497825
 20
-196.0285866584
 30
0.0
 11
722.1932980094
 21
-196.0285866584
 31
0.0
  0
LINE
  5
F8
  8
0
  6
CONTINUOUS
 62
     7
 10
734.1372343574
 20
-196.0285866584
 30
0.0
 11
731.2553497825
 21
-196.0285866584
 31
0.0
  0
LINE
  5
F9
  8
0
  6
CONTINUOUS
 62
     7
 10
1052.1371933494
 20
-159.5285797443
 30
0.0
 11
1052.1371933494
 21
-158.0285990562
 31
0.0
  0
LINE
  5
FA
  8
0
  6
CONTINUOUS
 62
     7
 10
1048.9827963386
 20
-158.0285990562
 30
0.0
 11
1052.1371933494
 21
-158.0285990562
 31
0.0
  0
LINE
  5
FB
  8
0
  6
CONTINUOUS
 62
     7
 10
1039.473828939
 20
-158.0285990562
 30
0.0
 11
1048.9827963386
 21
-158.0285990562
 31
0.0
  0
LINE
  5
FC
  8
0
  6
CONTINUOUS
 62
     7
 10
1025.4269215141
 20
-158.0285990562
 30
0.0
 11
1039.473828939
 21
-158.0285990562
 31
0.0
  0
LINE
  5
FD
  8
0
  6
CONTINUOUS
 62
     7
 10
1010.1372572456
 20
-158.0285990562
 30
0.0
 11
1025.4269215141
 21
-158.0285990562
 31
0.0
  0
LINE
  5
FE
  8
0
  6
CONTINUOUS
 62
     7
 10
1010.1372572456
 20
-156.5285885658
 30
0.0
 11
692.1372982536
 21
-156.5285885658
 31
0.0
  0
POLYLINE
  5
FF
  8
0
  6
CONTINUOUS
 62
     7
 66
     1
 10
0.0
 20
0.0
 30
0.0
 70
   128
  0
VERTEX
  5
218
  8
0
  6
CONTINUOUS
 62
     7
 10
644.054946569
 20
-186.1549580421
 30
0.0
  0
VERTEX
  5
219
  8
0
  6
CONTINUOUS
 62
     7
 10
643.8944908653
 20
-186.0175693359
 30
0.0
  0
VERTEX
  5
21A
  8
0
  6
CONTINUOUS
 62
     7
 10
642.2483297859
 20
-184.4063365783
 30
0.0
  0
VERTEX
  5
21B
  8
0
  6
CONTINUOUS
 62
     7
 10
640.8082815681
 20
-182.5087333049
 30
0.0
  0
VERTEX
  5
21C
  8
0
  6
CONTINUOUS
 62
     7
 10
640.5827375923
 20
-182.1363532867
 30
0.0
  0
VERTEX
  5
21D
  8
0
  6
CONTINUOUS
 62
     7
 10
640.5103775535
 20
-182.01037887
 30
0.0
  0
VERTEX
  5
21E
  8
0
  6
CONTINUOUS
 62
     7
 10
640.5023905311
 20
-181.9961929645
 30
0.0
  0
VERTEX
  5
21F
  8
0
  6
CONTINUOUS
 62
     7
 10
640.5014368568
 20
-181.9946134414
 30
0.0
  0
VERTEX
  5
220
  8
0
  6
CONTINUOUS
 62
     7
 10
640.5008408103
 20
-181.9935405578
 30
0.0
  0
VERTEX
  5
221
  8
0
  6
CONTINUOUS
 62
     7
 10
640.500721601
 20
-181.99318293
 30
0.0
  0
VERTEX
  5
222
  8
0
  6
CONTINUOUS
 62
     7
 10
640.5006023918
 20
-181.9930637207
 30
0.0
  0
VERTEX
  5
223
  8
0
  6
CONTINUOUS
 62
     7
 10
640.5006023918
 20
-181.9929743137
 30
0.0
  0
VERTEX
  5
224
  8
0
  6
CONTINUOUS
 62
     7
 10
640.5004831825
 20
-181.9929147091
 30
0.0
  0
SEQEND
  5
288
  8
0
  6
CONTINUOUS
 62
     7
  0
POLYLINE
  5
100
  8
0
  6
CONTINUOUS
 62
     7
 66
     1
 10
0.0
 20
0.0
 30
0.0
 70
   128
  0
VERTEX
  5
225
  8
0
  6
CONTINUOUS
 62
     7
 10
639.1372057472
 20
-177.0285928573
 30
0.0
  0
VERTEX
  5
226
  8
0
  6
CONTINUOUS
 62
     7
 10
639.4956680808
 20
-179.5878374901
 30
0.0
  0
VERTEX
  5
227
  8
0
  6
CONTINUOUS
 62
     7
 10
640.5004831825
 20
-181.9929147091
 30
0.0
  0
SEQEND
  5
289
  8
0
  6
CONTINUOUS
 62
     7
  0
POLYLINE
  5
101
  8
0
  6
CONTINUOUS
 62
     7
 66
     1
 10
0.0
 20
0.0
 30
0.0
 70
   128
  0
VERTEX
  5
228
  8
0
  6
CONTINUOUS
 62
     7
 10
640.5004831825
 20
-172.0642710056
 30
0.0
  0
VERTEX
  5
229
  8
0
  6
CONTINUOUS
 62
     7
 10
639.4956680808
 20
-174.4693184223
 30
0.0
  0
VERTEX
  5
22A
  8
0
  6
CONTINUOUS
 62
     7
 10
639.1372057472
 20
-177.0285928573
 30
0.0
  0
SEQEND
  5
28A
  8
0
  6
CONTINUOUS
 62
     7
  0
ARC
  5
102
  8
0
  6
CONTINUOUS
 62
     7
 10
652.1310720531
 20
-178.3982019282
 30
0.0
 40
13.2434617230268
 50
127.5764761363
 51
151.4276223179
  0
ARC
  5
103
  8
0
  6
CONTINUOUS
 62
     7
 10
667.5273524195
 20
-198.120999567
 30
0.0
 40
38.26392571627913
 50
107.522637322
 51
127.838244214
  0
ARC
  5
104
  8
0
  6
CONTINUOUS
 62
     7
 10
684.9840604599
 20
-250.0951535083
 30
0.0
 40
93.08764113018994
 50
97.4401737096
 51
108.1370265975
  0
POLYLINE
  5
105
  8
0
  6
CONTINUOUS
 62
     7
 66
     1
 10
0.0
 20
0.0
 30
0.0
 70
   128
  0
VERTEX
  5
22B
  8
0
  6
CONTINUOUS
 62
     7
 10
691.6267248664
 20
-156.5294528331
 30
0.0
  0
VERTEX
  5
22C
  8
0
  6
CONTINUOUS
 62
     7
 10
682.2106215034
 20
-156.8563545074
 30
0.0
  0
VERTEX
  5
22D
  8
0
  6
CONTINUOUS
 62
     7
 10
672.9299398933
 20
-157.7912533607
 30
0.0
  0
SEQEND
  5
28B
  8
0
  6
CONTINUOUS
 62
     7
  0
LINE
  5
106
  8
0
  6
CONTINUOUS
 62
     7
 10
692.1372982536
 20
-156.5285885658
 30
0.0
 11
691.6267248664
 21
-156.5294528331
 31
0.0
  0
ARC
  5
107
  8
0
  6
CONTINUOUS
 62
     7
 10
691.8180635966
 20
-55.6662426574
 30
0.0
 40
141.862713411746
 50
262.3487570158
 51
270.1288850559
  0
ARC
  5
108
  8
0
  6
CONTINUOUS
 62
     7
 10
684.4646956967
 20
-106.2508004444
 30
0.0
 40
90.75115323814772
 50
251.7247571712
 51
262.6978506112
  0
ARC
  5
109
  8
0
  6
CONTINUOUS
 62
     7
 10
667.225696332
 20
-156.5110624973
 30
0.0
 40
37.62504734418714
 50
231.987519789
 51
252.6518227525
  0
POLYLINE
  5
10A
  8
0
  6
CONTINUOUS
 62
     7
 66
     1
 10
0.0
 20
0.0
 30
0.0
 70
   128
  0
VERTEX
  5
22E
  8
0
  6
CONTINUOUS
 62
     7
 10
731.1372133766
 20
-196.0285866584
 30
0.0
  0
VERTEX
  5
22F
  8
0
  6
CONTINUOUS
 62
     7
 10
727.7167412315
 20
-197.1493923988
 30
0.0
  0
VERTEX
  5
230
  8
0
  6
CONTINUOUS
 62
     7
 10
724.1372438941
 20
-197.5285971489
 30
0.0
  0
SEQEND
  5
28C
  8
0
  6
CONTINUOUS
 62
     7
  0
LINE
  5
10B
  8
0
  6
CONTINUOUS
 62
     7
 10
724.1372438941
 20
-197.5285971489
 30
0.0
 11
692.1372982536
 21
-197.5285971489
 31
0.0
  0
LINE
  5
10C
  8
0
  6
CONTINUOUS
 62
     7
 10
1042.1372028861
 20
-156.5285885658
 30
0.0
 11
1044.019875196
 21
-156.7280257072
 31
0.0
  0
LINE
  5
10D
  8
0
  6
CONTINUOUS
 62
     7
 10
1010.1372572456
 20
-156.5285885658
 30
0.0
 11
1042.1372028861
 21
-156.5285885658
 31
0.0
  0
LINE
  5
10E
  8
0
  6
CONTINUOUS
 62
     7
 10
693.1372257743
 20
-194.528576168
 30
0.0
 11
1091.1372276817
 21
-194.528576168
 31
0.0
  0
LINE
  5
10F
  8
0
  6
CONTINUOUS
 62
     7
 10
693.1372257743
 20
-159.5285797443
 30
0.0
 11
1091.1372276817
 21
-159.5285797443
 31
0.0
  0
POLYLINE
  5
110
  8
0
  6
CONTINUOUS
 62
     7
 66
     1
 10
0.0
 20
0.0
 30
0.0
 70
   128
  0
VERTEX
  5
231
  8
0
  6
CONTINUOUS
 62
     7
 10
1092.1372744117
 20
-159.5285797443
 30
0.0
  0
VERTEX
  5
232
  8
0
  6
CONTINUOUS
 62
     7
 10
1101.4611097846
 20
-159.8227286663
 30
0.0
  0
VERTEX
  5
233
  8
0
  6
CONTINUOUS
 62
     7
 10
1110.7502552543
 20
-160.7298815574
 30
0.0
  0
VERTEX
  5
234
  8
0
  6
CONTINUOUS
 62
     7
 10
1119.9308606658
 20
-162.3913908329
 30
0.0
  0
VERTEX
  5
235
  8
0
  6
CONTINUOUS
 62
     7
 10
1126.6822787795
 20
-164.2614269581
 30
0.0
  0
VERTEX
  5
236
  8
0
  6
CONTINUOUS
 62
     7
 10
1133.1759068046
 20
-166.913416418
 30
0.0
  0
VERTEX
  5
237
  8
0
  6
CONTINUOUS
 62
     7
 10
1136.2271877799
 20
-168.6653459396
 30
0.0
  0
VERTEX
  5
238
  8
0
  6
CONTINUOUS
 62
     7
 10
1139.0078040634
 20
-170.8430016365
 30
0.0
  0
VERTEX
  5
239
  8
0
  6
CONTINUOUS
 62
     7
 10
1141.2091228042
 20
-173.6147964325
 30
0.0
  0
VERTEX
  5
23A
  8
0
  6
CONTINUOUS
 62
     7
 10
1141.8976756606
 20
-175.2601826515
 30
0.0
  0
VERTEX
  5
23B
  8
0
  6
CONTINUOUS
 62
     7
 10
1142.137226728
 20
-177.0285928573
 30
0.0
  0
SEQEND
  5
28D
  8
0
  6
CONTINUOUS
 62
     7
  0
LINE
  5
111
  8
0
  6
CONTINUOUS
 62
     7
 10
1091.1372276817
 20
-159.5285797443
 30
0.0
 11
1092.1372744117
 21
-159.5285797443
 31
0.0
  0
POLYLINE
  5
112
  8
0
  6
CONTINUOUS
 62
     7
 66
     1
 10
0.0
 20
0.0
 30
0.0
 70
   128
  0
VERTEX
  5
23C
  8
0
  6
CONTINUOUS
 62
     7
 10
1092.1372744117
 20
-194.528576168
 30
0.0
  0
VERTEX
  5
23D
  8
0
  6
CONTINUOUS
 62
     7
 10
1101.4611097846
 20
-194.2344570484
 30
0.0
  0
VERTEX
  5
23E
  8
0
  6
CONTINUOUS
 62
     7
 10
1110.7502552543
 20
-193.3273041572
 30
0.0
  0
VERTEX
  5
23F
  8
0
  6
CONTINUOUS
 62
     7
 10
1119.9308606658
 20
-191.6657650795
 30
0.0
  0
VERTEX
  5
240
  8
0
  6
CONTINUOUS
 62
     7
 10
1126.6822787795
 20
-189.7957587566
 30
0.0
  0
VERTEX
  5
241
  8
0
  6
CONTINUOUS
 62
     7
 10
1133.1759068046
 20
-187.1437692966
 30
0.0
  0
VERTEX
  5
242
  8
0
  6
CONTINUOUS
 62
     7
 10
1136.2271877799
 20
-185.3918397751
 30
0.0
  0
VERTEX
  5
243
  8
0
  6
CONTINUOUS
 62
     7
 10
1139.0078040634
 20
-183.2141840782
 30
0.0
  0
VERTEX
  5
244
  8
0
  6
CONTINUOUS
 62
     7
 10
1141.2091228042
 20
-180.4423892822
 30
0.0
  0
VERTEX
  5
245
  8
0
  6
CONTINUOUS
 62
     7
 10
1141.8976756606
 20
-178.7969732609
 30
0.0
  0
VERTEX
  5
246
  8
0
  6
CONTINUOUS
 62
     7
 10
1142.137226728
 20
-177.0285928573
 30
0.0
  0
SEQEND
  5
28E
  8
0
  6
CONTINUOUS
 62
     7
  0
LINE
  5
113
  8
0
  6
CONTINUOUS
 62
     7
 10
1091.1372276817
 20
-194.528576168
 30
0.0
 11
1092.1372744117
 21
-194.528576168
 31
0.0
  0
POLYLINE
  5
114
  8
0
  6
CONTINUOUS
 62
     7
 66
     1
 10
0.0
 20
0.0
 30
0.0
 70
   128
  0
VERTEX
  5
247
  8
0
  6
CONTINUOUS
 62
     7
 10
692.1372982536
 20
-194.528576168
 30
0.0
  0
VERTEX
  5
248
  8
0
  6
CONTINUOUS
 62
     7
 10
682.8133436714
 20
-194.2344570484
 30
0.0
  0
VERTEX
  5
249
  8
0
  6
CONTINUOUS
 62
     7
 10
673.5241982017
 20
-193.3273041572
 30
0.0
  0
VERTEX
  5
24A
  8
0
  6
CONTINUOUS
 62
     7
 10
664.3436523948
 20
-191.6657650795
 30
0.0
  0
VERTEX
  5
24B
  8
0
  6
CONTINUOUS
 62
     7
 10
657.5922342811
 20
-189.7957587566
 30
0.0
  0
VERTEX
  5
24C
  8
0
  6
CONTINUOUS
 62
     7
 10
651.0985466514
 20
-187.1437692966
 30
0.0
  0
VERTEX
  5
24D
  8
0
  6
CONTINUOUS
 62
     7
 10
648.0472656761
 20
-185.3918397751
 30
0.0
  0
VERTEX
  5
24E
  8
0
  6
CONTINUOUS
 62
     7
 10
645.2667089973
 20
-183.2141840782
 30
0.0
  0
VERTEX
  5
24F
  8
0
  6
CONTINUOUS
 62
     7
 10
643.0653902564
 20
-180.4423892822
 30
0.0
  0
VERTEX
  5
250
  8
0
  6
CONTINUOUS
 62
     7
 10
642.3768374
 20
-178.7969732609
 30
0.0
  0
VERTEX
  5
251
  8
0
  6
CONTINUOUS
 62
     7
 10
642.137226728
 20
-177.0285928573
 30
0.0
  0
SEQEND
  5
28F
  8
0
  6
CONTINUOUS
 62
     7
  0
LINE
  5
115
  8
0
  6
CONTINUOUS
 62
     7
 10
693.1372257743
 20
-194.528576168
 30
0.0
 11
692.1372982536
 21
-194.528576168
 31
0.0
  0
POLYLINE
  5
116
  8
0
  6
CONTINUOUS
 62
     7
 66
     1
 10
0.0
 20
0.0
 30
0.0
 70
   128
  0
VERTEX
  5
252
  8
0
  6
CONTINUOUS
 62
     7
 10
692.1372982536
 20
-159.5285797443
 30
0.0
  0
VERTEX
  5
253
  8
0
  6
CONTINUOUS
 62
     7
 10
682.8133436714
 20
-159.8227286663
 30
0.0
  0
VERTEX
  5
254
  8
0
  6
CONTINUOUS
 62
     7
 10
673.5241982017
 20
-160.7298815574
 30
0.0
  0
VERTEX
  5
255
  8
0
  6
CONTINUOUS
 62
     7
 10
664.3436523948
 20
-162.3913908329
 30
0.0
  0
VERTEX
  5
256
  8
0
  6
CONTINUOUS
 62
     7
 10
657.5922342811
 20
-164.2614269581
 30
0.0
  0
VERTEX
  5
257
  8
0
  6
CONTINUOUS
 62
     7
 10
651.0985466514
 20
-166.913416418
 30
0.0
  0
VERTEX
  5
258
  8
0
  6
CONTINUOUS
 62
     7
 10
648.0472656761
 20
-168.6653459396
 30
0.0
  0
VERTEX
  5
259
  8
0
  6
CONTINUOUS
 62
     7
 10
645.2667089973
 20
-170.8430016365
 30
0.0
  0
VERTEX
  5
25A
  8
0
  6
CONTINUOUS
 62
     7
 10
643.0653902564
 20
-173.6147964325
 30
0.0
  0
VERTEX
  5
25B
  8
0
  6
CONTINUOUS
 62
     7
 10
642.3768374
 20
-175.2601826515
 30
0.0
  0
VERTEX
  5
25C
  8
0
  6
CONTINUOUS
 62
     7
 10
642.137226728
 20
-177.0285928573
 30
0.0
  0
SEQEND
  5
290
  8
0
  6
CONTINUOUS
 62
     7
  0
LINE
  5
117
  8
0
  6
CONTINUOUS
 62
     7
 10
693.1372257743
 20
-159.5285797443
 30
0.0
 11
692.1372982536
 21
-159.5285797443
 31
0.0
  0
POLYLINE
  5
118
  8
0
  6
CONTINUOUS
 62
     7
 66
     1
 10
0.0
 20
0.0
 30
0.0
 70
   128
  0
VERTEX
  5
25D
  8
0
  6
CONTINUOUS
 62
     7
 10
973.583874372
 20
-223.4833056059
 30
0.0
  0
VERTEX
  5
25E
  8
0
  6
CONTINUOUS
 62
     7
 10
973.7709137473
 20
-226.3910585966
 30
0.0
  0
VERTEX
  5
25F
  8
0
  6
CONTINUOUS
 62
     7
 10
973.4688374076
 20
-229.1259730186
 30
0.0
  0
VERTEX
  5
260
  8
0
  6
CONTINUOUS
 62
     7
 10
972.9019972358
 20
-231.5831446972
 30
0.0
  0
VERTEX
  5
261
  8
0
  6
CONTINUOUS
 62
     7
 10
972.334322599
 20
-233.5499489631
 30
0.0
  0
VERTEX
  5
262
  8
0
  6
CONTINUOUS
 62
     7
 10
972.1184345756
 20
-234.4721222248
 30
0.0
  0
VERTEX
  5
263
  8
0
  6
CONTINUOUS
 62
     7
 10
972.1252295051
 20
-234.4870382871
 30
0.0
  0
SEQEND
  5
291
  8
0
  6
CONTINUOUS
 62
     7
  0
LINE
  5
119
  8
0
  6
CONTINUOUS
 62
     7
 10
968.8343378578
 20
-194.528576168
 30
0.0
 11
973.583874372
 21
-223.4833056059
 31
0.0
  0
LINE
  5
11A
  8
0
  6
CONTINUOUS
 62
     7
 10
972.1439453636
 20
-234.5285827245
 30
0.0
 11
812.1306273017
 21
-234.5285827245
 31
0.0
  0
POLYLINE
  5
11B
  8
0
  6
CONTINUOUS
 62
     7
 66
     1
 10
0.0
 20
0.0
 30
0.0
 70
   128
  0
VERTEX
  5
264
  8
0
  6
CONTINUOUS
 62
     7
 10
810.690579084
 20
-223.4833056059
 30
0.0
  0
VERTEX
  5
265
  8
0
  6
CONTINUOUS
 62
     7
 10
810.5035397086
 20
-226.3910585966
 30
0.0
  0
VERTEX
  5
266
  8
0
  6
CONTINUOUS
 62
     7
 10
810.8056160484
 20
-229.1259730186
 30
0.0
  0
VERTEX
  5
267
  8
0
  6
CONTINUOUS
 62
     7
 10
811.3724562202
 20
-231.5831446972
 30
0.0
  0
VERTEX
  5
268
  8
0
  6
CONTINUOUS
 62
     7
 10
811.940130857
 20
-233.5499489631
 30
0.0
  0
VERTEX
  5
269
  8
0
  6
CONTINUOUS
 62
     7
 10
812.1560188804
 20
-234.4721222248
 30
0.0
  0
VERTEX
  5
26A
  8
0
  6
CONTINUOUS
 62
     7
 10
812.1493431602
 20
-234.4870382871
 30
0.0
  0
SEQEND
  5
292
  8
0
  6
CONTINUOUS
 62
     7
  0
LINE
  5
11C
  8
0
  6
CONTINUOUS
 62
     7
 10
815.4401155982
 20
-194.528576168
 30
0.0
 11
810.690579084
 21
-223.4833056059
 31
0.0
  0
LINE
  5
11D
  8
0
  6
CONTINUOUS
 62
     7
 10
646.4866968665
 20
-879.5285785522
 30
0.0
 11
669.419226316
 21
-879.5285785522
 31
0.0
  0
LINE
  5
11E
  8
0
  6
CONTINUOUS
 62
     7
 10
1044.988212255
 20
-599.419024023
 30
0.0
 11
1044.9849936042
 21
-599.3803555097
 31
0.0
  0
ARC
  5
11F
  8
0
  6
CONTINUOUS
 62
     7
 10
943.6216802502
 20
-600.8629862764
 30
0.0
 40
101.376816075896
 50
0.8161209219
 51
23.9946042842
  0
LINE
  5
120
  8
0
  6
CONTINUOUS
 62
     7
 10
739.286241201
 20
-599.419024023
 30
0.0
 11
739.2889830146
 21
-599.3871057358
 31
0.0
  0
ARC
  5
121
  8
0
  6
CONTINUOUS
 62
     7
 10
840.6527732058
 20
-600.8629862764
 30
0.0
 40
101.376816075896
 50
156.0053957158
 51
179.1838790781
  0
LINE
  5
122
  8
0
  6
CONTINUOUS
 62
     7
 10
1137.7878161941
 20
-879.5285785522
 30
0.0
 11
1114.8552867446
 21
-879.5285785522
 31
0.0
  0
ENDSEC
  0
EOF
